a b c d e f g h i j k l m n o p q r s t u v w x y z 0-9

Voy A Bailar A La Nave Del Olvido

La Renga

			
Este es el segundo solo que tiene la canción, 
el cual no estaba en la página. Incluyo la explicación
otra vez porque agregué nuevos símbolos:


EXPLICACIONES

´: estirar
`: bajar
^: estirar y bajar, y luego ligar.
: ligar
s: deslizar

E|-------------------------------------------1310------
B|-10--10---------------------------10-13-10------1310-
G|--9´--9´`-9-7------79------1012---------------------
D|---------------7s9-----9s12---------------------------
A|------------------------------------------------------
E|------------------------------------------------------


E|1310-------1310-------1310-------1310-------------
B|------1310-------1310-------1310-------1310-------
G|------------------------------------------------------
D|------------------------------------------------------
A|------------------------------------------------------
E|------------------------------------------------------

                            
E|1310-------------------------------------------------
B|------1310-13´------1513----------------------------
G|------------------14-------1412----12----------------
D|---------------------------------15----15--12--10s12--
A|------------------------------------------------------
E|------------------------------------------------------

         
E|----------------------------------------13------------
B|----------------13-------------15-15-12----15-----15--
G|101210--12-14----14-14---14´----------------14´-----
D|------------------------------------------------------
A|------------------------------------------------------
E|------------------------------------------------------


E|13-----------17´`---------------17´`------------------
B|---15-----15------17´`-15----15------17´`-15----15----
G|-------16-----------------16-----------------16-------
D|------------------------------------------------------
A|------------------------------------------------------
E|------------------------------------------------------


E|----------------------------------15´-15-13-----------
B|17´-17^15----15----17´-17´-17-15------------15-13-12--
G|----------16----16------------------------------------
D|------------------------------------------------------
A|------------------------------------------------------
E|------------------------------------------------------


E|------------------------------------------------------
B|------------------------------------------------------
G|14-12-------------------------------------------------
D|------15-14-12-------12-12-12-------------------------
A|---------------12-15----------------------------------
E|------------------------------------------------------

Javier

Fuente original ATAME [www.atame.org]
Colaborador original: Javier P. [javier_pimas@yahoo.com]

Fuente: tusacordes.com