a b c d e f g h i j k l m n o p q r s t u v w x y z 0-9

Viva Pappo

La Renga

			
Bueno muchachos rengueros aca les dejo el bajo de VIVA PAPPO

intro
---------------------//--------------------/
---------------------//--------------------/
-----------9-12-9-6-9//----------9-12-9-6-9/ X2
-9-6-9-6-9-----------//-9-6-9-6-9----------/


final
---------------------//--------------------/
---------------------//--------------------/
-----------9-12-9-6-9//----------9-12-9-6-9/ X2
-9-6-9-6-9-----------//-9-6-9-6-9----------/

---------
---------
---------
-9-6-9---

ESTO LO SAQUE YO UNA TARDE QUE eSTABA AL PEDO EN MI CASA
BUENO LES QUERIA DEDICAR ESTE TEMA VIVA PAPPO A TODOS
MIS AMIGOS Y A LA BANDA Y A MI VIEJA Y A MI VIEJO Y A LULI

Fuente original ATAME [www.atame.org]
Colaborador original: Maximiliano Porta [maxi_piojoso875@hotmail.com]

Fuente: tusacordes.com