a b c d e f g h i j k l m n o p q r s t u v w x y z 0-9

Veneno

La Renga

			
Intro

  Do                Lam
1-0----0------------0---0-----0------------
2-1------1----------1-----1-----1----------
3-0--------0--------2-------2-----2--------
4-2----------2------2---------------2------
5-3------------3-2--0-----------------0----
6-0-----------------0----------------------

1-0----0------------0---0---0-0-0-0-0-0-0-0
2-1------1----------1-----1-1-1-1-1-1-1-1-1
3-0--------0--------2-------2-2-2-2-2-2-2-0
4-2----------2------2----------------------
5-3------------3-2--0----------------------
6-0-----------------0----------------------

Do                                              Lam
En un rincon de las sierras donde arden las estrellas
Do                                     Lam
Deje mi herida abierta en un valle de penas
Rem                   Lam
Casi sin darte cuenta se te puede enfermar el corazon
Rem
Cuando uno menos lo espera
Mi
El veneno ya esta en tus venas

En un rio de deshielo al sol de una mañana
Trajeron en un cuerpo a un angel de montaña
Un par de ojos negros te pueden robar la ilusion
y no hay cura ni remedio
q te haga ver mejor



E||---------------------|----------------------|-----------------------|
B||---------------------|----------------------|-----------------------|
G||---------------------|----------------------|----------7b-7p5-7--7b-|
D||------------------2--|----------5--5--5/-7--|-----------------------|
A||--3----------5-------|----------------------|-----------------------|
E||---------------------|----------------------|-----------------------|



---------------------|------------------------|-------------------------|
--8------------------|------------------------|-------------8----8/-10--|
-----------7r---7b---|----------7b7p5---5--5--|-------5/-9--------------|
---------------------|----------------7-------|----7--------------------|
---------------------|------------------------|-------------------------|
---------------------|------------------------|-------------------------|



----------------------------|---------------------------|
--------13h-15p-13----------|---------------------10----|
--------------------14--14--|----12-9-12--12/-----------|
----------------------------|---------------------------|
----------------------------|---------------------------|
----------------------------|---------------------------|



------------------------------|--------------------------|
--13~-------13--13-10-13--13--|--------------12----13----|
------------------------------|--------------------------|
------------------------------|--------------------------|
------------------------------|--------------------------|
------------------------------|--------------------------|



--------------------------------------|--------------------|
--15p---13p---12----13----12----------|--------------------|
--------------------------------14~---|----------------14--|
--------------------------------------|--------------------|
--------------------------------------|--------------------|
--------------------------------------|--------------------|



--------12----------------------------|----------------------------|
--15----------13----------------------|-----------10---------------|
--------------------14----12----10----|--9--------------12----9----|
--------------------------------------|----------------------------|
--------------------------------------|----------------------------|
--------------------------------------|----------------------------|



------------------------------------------|
--10p9------10p9------10p9------10p9------|
-------12p9------12p9------12p9------12p9-|
------------------------------------------|
------------------------------------------|
------------------------------------------|



------------------------------------------|-------------8----8--|
--10p9------10p9------10p9------10p9------|-------------8----8--|
-------12p9------12p9------12p9------12p9-|--7b-----------------|
------------------------------------------|---------------------|
------------------------------------------|---------------------|
------------------------------------------|---------------------|



------------------------|----------------------|------------------------|
------------------------|----------------------|------------------------|
----------7b7p5---5--7--|--5-------------------|--5-----5b---5-------7--|
----------------7-------|-------7--------5h-7--|-----7------------5-----|
------------------------|----------------------|------------------------|
------------------------|----------------------|------------------------|



--------------------------|--------------------------|------------------------|
--------------------------|--------------------------|------------------------|
--7b-7p-5--7b-7p-5--7b-7p-|--5--7b-7p-5--7b-7--5h-7--|--5---------------5--5--|
--------------------------|--------------------------|-------7----5h-7--------|
--------------------------|--------------------------|------------------------|
--------------------------|--------------------------|------------------------|



----------------------||
----------------------||
--------5~------------||
----5h7------5/-------||
----------------------||
----------------------||

La luna y mi suerte rompieron el encanto
perdi mi sueño una noche que el angel se hizo diablo
un par de ojos negros  te pueden robar la ilusion
y no hay cura ni remedio que te haga ver mejor

En un rincon....




Bueno aguante la renga y todo lo q sea rock nacional!!!!!
Ante cualkier duda de este tema y muchos otros dela renga consultenme a mi mail
Giany te amo!!

Fuente original ATAME [www.atame.org]
Colaborador original: gonzalo [gonza_m003@hotmail.com]

Fuente: tusacordes.com