a b c d e f g h i j k l m n o p q r s t u v w x y z 0-9

Veneno

La Renga

			
INTRO;
GUITARRA ELECTROACÚSTICA
          DO             MI             LAm                DO             MI  LAm
e|--0----------------------------|-0--------0-0-|------------------------|----0-------111111--|
B|--1-------1--------------------|-1--1-----1-1-|-------1--1-------------|----1--1----111111--|
G|--0----------0--------0--------|-2-----2--2-2-|-------0--------0-------|----2----2--222222--|
D|--2---2---------2--------2-----|-2--------2-2-|-------2-----------2----|----2-------222222--|
A|--3-3--------------3--------2--|-0--------0-0-|--3-2--3-----3--------3-|-2--0-------000000--|
E|-------------------------------|--------------|------------------------|--------------------|

VERSO 1:
          DO                DO/SI      LAm               REm                   LAm         REm     MI7
e|----0-0--0-0-0-0--0-0-0--|-----|--0--0-0-0--00--|-1--1-1-1--1-1-1--1-1-|-0--0-0--0-0-0-|-----|-0000000-|
B|----1-1--1-1-1-1--1-1-1--|--1--|--1--1-1-1--11--|-3--3-3-3--3-3-3--3-3-|-1--1-1--1-1-1-|-----|-0000000-|
G|----0-0--0-0-0-0--0-0-0--|--0--|--2--2-2-2--22--|-2--2-2-2--2-2-2--2-2-|-2--2-2--2-2-2-|-----|-1111111-|
D|--2-2-2--2-2-2-2--2-2-2--|--0--|--2--2-2-2--22--|-0--0-0-0--0-0-0--0-0-|-2--2-2--2-2-2-|-REm-|-0000000-|
A|--3-3-3--3-3-3-3--3-3-3--|--2--|--0--0-0-0--00--|----------------------|-0--0-0--0-0-0-|-----|-2222222-|
E|-------------------------|-----|----------------|----------------------|---------------|-----|-0000000-|

   DO                                  DO/SI    LAm
En un rincón de las sierras donde arden las estreeeeeeellas,
   DO                             DO/SI  LAm
dejé mi herida abierta en un valle de pe-eenaaas.
 REm                        LAm
Casi sin darte cuenta se te puede enfermar el corazón,
REm
cuando uno menos lo espera,
   MI7
el veneno ya está en tus venas.

VERSO 2 igual

En un río de deshielo, al sol de una mañana
trajeron en un cuerpo a un ángel de montaña,
un par de ojos negros te pueden robar la ilusión
y no hay cura ni remedio que te haga ver mejor.

1° SOLO;
GUITARRA ELÉCTRICA:
      DO                    DO/SI     LAm                             DO                           DO/SI
e|--------------|-------------------|-----------------------------|-------------------|-------------------|
B|--------------|-------------------|--------------------------8--|-------------------|-----------8-8s10--|
G|--------------|-------------------|---7bap5--7--7bmantiene----|---7bap5-----5--5--|----5-7s9----------|
D|----------2---|-----5-5-5s7-7s----|-----------------------------|----------7--------|-7-----------------|
A|--3---5-------|-------------------|-----------------------------|-------------------|-------------------|
E|--------------|-------------------|-----------------------------|-------------------|-------------------|
    LAm              LAm                   REm                       REm     LAm
e|----------------|----------------------|-----------------------|-------------------------------|
B|--13h15p13------|------------------10--|-13b~--13bap10-13-13b--|--12h13---15p13p12--13-12------|
G|------------14--|---12p9-12-12s------|-----------------------|--------------------------14~--|
D|----------------|----------------------|-----------------------|-------------------------------|
A|----------------|----------------------|-----------------------|-------------------------------|
E|----------------|----------------------|-----------------------|-------------------------------|
  REm                        REm                 MI7
e|------12-----------------|------------------|--------------------------------------------------------------|
B|--15------13-------------|-----10-----------|--10p9--------10p9--------10p9--------10p9--------10p9--------|
G|--------------14--12--10-|--9------12---9---|--------12p9--------12p9--------12p9--------12p9--------12p9--|
D|-------------------------|------------------|--------------------------------------------------------------|
A|-------------------------|------------------|--------------------------------------------------------------|
E|-------------------------|------------------|--------------------------------------------------------------|
   MI7                           DO                    DO/SI  LAm               LAm
e|-----------------------------|-------8-8--|---------------|----------------|-----------------------|
B|--10p9--------10p9--------9--|-------8-8--|---------------|----------------|-----------------------|
G|--------12p9--------12p9-----|--7b--------|--7bap5---5h7--|--5-------------|--5-----7ba---5-----5--|
D|-----------------------------|------------|--------7------|------7----5h7--|-----7-----------7-----|
A|-----------------------------|------------|---------------|----------------|-----------------------|
E|-----------------------------|------------|---------------|----------------|-----------------------|
    DO                           DO/SI   LAm                 LAm
e|------------------------------------|-------------------|----------------------|
B|------------------------------------|-------------------|----------------------|
G|-7bap5-7bap5-7bap5-7bap5-7bap5--5h7-|-5------------5-5--|--------5-------------|
D|------------------------------------|-----7---5h7-------|---5h7-----5--5s*-----|
A|------------------------------------|-------------------|----------------------|
E|------------------------------------|-------------------|----------------------|

VERSO 3 igual

La luna y mi suerte, rompieron el encanto
perdí mi sueño en la noche que el ángel se hizo diablo.
Un par de ojos negros te pueden robar la ilusión
y no hay cura ni remedio que te haga ver mejor.

VERSO 1

DO                      DO/SI   LAm
la la lara la la lara la  la  laa la
DO                   DO/SI LAm
la la lara la la lara la   la, oh oh

2° SOLO;
GUITARRA ELÉCTRICA:
       REm               REm                LAm           LAm               REm               REm
e|----10---12---13---|-12---10---12-----|--5----7---8---|-7----5---7---|---10---12---13---|-12----10--12---|
B|----10-------------|------------------|--5------------|--------------|---10-------------|----------------|
G|----10-------------|------------------|--5------------|--------------|---10-------------|----------------|
D|----12-------------|------------------|--7------------|--------------|---12-------------|----------------|
A|----12-------------|------------------|--7------------|--------------|---12-------------|----------------|
E|----10-------------|------------------|--5------------|--------------|---10-------------|----------------|
              MI7                                  MI7
e|--------12-------12-------12-------12----|------12-------12-----------12---------|
B|----9--------9--------9--------9---------|--9--------9--------9---9---------9----|
G|-----------------------------------------|---------------------------------------|
D|-----------------------------------------|---------------------------------------|
A|-----------------------------------------|---------------------------------------|
E|-----------------------------------------|---------------------------------------|

SOLO DE SAXO: Sobre los básicos [DO LAm x2] REm LAm REm MI7 DO

Fin.

Fuente original ATAME [www.atame.org]
Colaborador original: Mati [matiasp_motoralmaisangre@hotmail.com]

Fuente: tusacordes.com