a b c d e f g h i j k l m n o p q r s t u v w x y z 0-9

Veneno

La Renga

			
Intro.
G|---------------------------|-----------------------------------|--------|----------------|
D|---------------------------|-----------------------------------|--------|----------------|
A|--3-----------------3-2--|0---------------------3-2-0------|3-3-2-|-0--000000000-|
E|---------------------------|------------------------------3-1-0|--------|----------------|

Verso 1
G|---------------------------|-----------------------------------|--------|----------------|
D|---------------------------|-----------------------------------|--------|----------------|
A|--3-----------------3-2--|0---------------------3-2-0------|3-3-2-|-0--000000000-|
E|---------------------------|------------------------------3-1-0|--------|----------------|

G|---------------------|
D|---------------------|
A|-7-7-7-7-7-7--7-7-7--|
E|---------------------|

Verso 2, 3 y 4 como verso 1

Solo de guitarra.
G|------------------------|---------------------------|--|----------|----------|---------|------|
D|------------------------|---------------------------|X2|----------|----------|---------|------|
A|-3-3--3-3-3--3-3--3-3-2-|---------------------------|--|5-5555|----------|5-555|-MI---|
E|------------------------|-5-5-5-5-5-3-5-5--3-5-5-5-5|--|----------|5-5555|---------|------|

G|------|-------|------|-------|
D|--DO--|--LAm--|--DO--|--LAm--|
A|------|-------|------|-------|
E|------|-------|------|-------|

los versos que suigen son todos como 1

Puente.
G|------------------------|---------------------------|--|------------------------|------|------|
D|------------------------|---------------------------|X2|------------------------|--LAm-|-REm--|
A|-3-3--3-3-3--3-3--3-3-2-|---------------------------|--|-5-5-5-3-5-5--5-7-5-----|------|------|
E|------------------------|-5-5-5-5-5-3-5-5--3-5-5-5-5|--|--------------------8-5-|------|------|

G|---------------------|
D|---------------------| esto lo hace en la parte que tararea, casi al final.
A|-7-7-7-7-7-7--7-7-7--|
E|---------------------|

Solo de saxo y fin
G|------------------------|---------------------------|--|--------------------|
D|------------------------|---------------------------|X4|--------------------|
A|-3-3--3-3-3--3-3--3-3-2-|---------------------------|--|--3-2-0--------3--|
E|------------------------|-5-5-5-5-5-3-5-5--3-5-5-5-5|--|--------3-1-0-------|

Fuente original ATAME [www.atame.org]
Colaborador original: Mariano Manieri [marianoelrusso@hotmail.com]

Fuente: tusacordes.com