a b c d e f g h i j k l m n o p q r s t u v w x y z 0-9

Veneno

La Renga

			
Intro
Guitarra: acustica            
   DO                           LAm                                          LAm 
e|----------------------------|--0------------------0-0----0-0---|-----|-0-------------0000000-|
B|--1-----1-------------------|--1----1------1------1-1----1-1---|-----|-1----1----1---1111111-|
G|--0-----------0-----0-------|--2------2------2----2-2----2-2---|-DO--|-2-----2----2--2222222-|
D|--2-------------2-----------|--2-------------------------------|-----|-2-------------2222222-|
A|--3--3-----3------3----3-2--|--0--0------0------0------0-------|-----|-0--0----0-----0000000-|
E|----------------------------|----------------------------------|-----|-----------------------|

BAJO:   DO                      LAm                                Do           LA
G|---------------------------|-----------------------------------|--------|----------------|
D|---------------------------|-----------------------------------|--------|----------------|
A|--3-----------------3-2--|0---------------------3-2-0------|3-3-2-|-0--000000000-|
E|---------------------------|------------------------------3-1-0|--------|----------------|


VERSO 1:

BAJO:  Do                    Lam                            REm  
G|------------------------|---------------------------|--|------------------------|------|------|
D|------------------------|---------------------------|X2|------------------------|--LAm-|-REm--|
A|-3-3--3-3-3--3-3--3-3-2-|---------------------------|--|-5-5-5-3-5-5--5-7-5-----|------|------|
E|------------------------|-5-5-5-5-5-3-5-5--3-5-5-5-5|--|--------------------8-5-|------|------|

G|---------------------|
D|---------------------|
A|-7-7-7-7-7-7--7-7-7--|
E|---------------------|


GUITARRA:

  DO
En un rincón de la sierra
                    LAm
Donde arden las estrellas
  DO
Dejé mi herida abierta
                LAm
En un valle de penas


 REm
Casi sin darte cuenta
      LAm
Se te puede enfermar el corazón
  REm
Cuando uno menos lo espera
     MI                 MI7
El veneno ya está en tus venas



VERSO 2 igual

En un río de deshielo
Al sol de una mañana
Trajeron en un cuerpo
A un ángel de montaña


Un par de ojos negros
Te pueden robar la ilusión
Y no hay cura ni remedio
Que te haga ver mejor


SOLO DE GUITARRA:

BAJO:  Do                    Lam                            REm        LAm       REm
G|------------------------|---------------------------|--|----------|----------|---------|------|
D|------------------------|---------------------------|X2|----------|----------|---------|------|
A|-3-3--3-3-3--3-3--3-3-2-|---------------------------|--|5-5555|----------|5-555|-MI---|
E|------------------------|-5-5-5-5-5-3-5-5--3-5-5-5-5|--|----------|5-5555|---------|------|

G|------|-------|------|-------|
D|--DO--|--LAm--|--DO--|--LAm--|
A|------|-------|------|-------|
E|------|-------|------|-------|


GUITARRA:
e|---------------------------|------------------|---------------------------|------------------|
B|---------------------------|-----------------8|--8--8---------------------|-----8-8h10-10~-|
G|---------------------------|-7br-p5--5-7-8b-|--8b-8b--8p7-5---5b-5b-----|-7/9--------------|
D|---------------5-5-7-77~-|------------------|---------------7-------7~--|------------------|
A|--3~-/-5-7-8p7-------------|------------------|---------------------------|------------------|
E|---------------------------|------------------|---------------------------|------------------|

e|-8h10--8----------|----------|------------------------|---------------------------------|
B|---------10-10~-|-8---8~-|-14b-15p14-12-14-15~|-12-13-15-13-12-13-12------------|
G|------------------|---7------|------------------------|----------------------14~~-----|
D|------------------|----------|------------------------|---------------------------------|
A|------------------|----------|------------------------|---------------------------------|
E|------------------|----------|------------------------|---------------------------------|

e|-10-12------------------|-5-3p0--5p3p0-5p3p0--5p3p0-5p3p0-5p3p0-5p3p0-5p3p0--5//-------|
B|-------13-10------------|--------------------------------------------------------------|
G|-------------12-10-9~-|--------------------------------------------------------------|
D|------------------------|--------------------------------------------------------------|
A|------------------------|--------------------------------------------------------------|
E|------------------------|--------------------------------------------------------------|

e|--------------------|--------------------|----------------|----------------------------------|
B|--------------------|-----------5--------|----------------|----------------------------------|
G|-7b--7b-p5--77b-|--8p7-5--7---5~-----|-----5----7br--5|---5-7br-5-7br-5--7br-5-7br-5-7-5-|
D|--------------------|----------------7~|-5-7---7--------|-7-------------------------------7|
A|--------------------|--------------------|----------------|----------------------------------|
E|--------------------|--------------------|----------------|----------------------------------|

e|-----------------------|
B|-----------------------|
G|--------5-5----5-------|
D|-3/5--7------7---7~--|
A|-----------------------|
E|-----------------------|

VERSO 3:igual

La luna y mi suerte
rompieron el encanto
pedí mi sueño en la noche
que el ángel se hace diablo


GUITARRA:de fondo
GUITARRA : de fondo
    REm                LAm                REm             MI7
e|----------------|-----------------|----------------|-----------------|
B|----------------|-----------------|----------------|-----------------|
G|----------------|-----------------|----------------|-----------------|
D|----------------|-----------------|----------------|--------6~-7~-/--|
A|---5~--7~-8~-7~-|-----------------|---5~--7~-8~-7~-|--7~-9~----------|
E|-8--------------|-3--5~--7~-8~-7~-|-8--------------|-----------------|

un par de ojos negros
te pueden robar la ilusión
y no hay cura ni remedio
que te haga ver mejor.



VERSO 4 

do
En un rincón de la sierra                  
Donde arden las estrellas DO
Dejé mi herida abierta               
En un valle de penas

GUITARRA : de fondo
    REm                LAm                REm             MI7
e|----------------|-----------------|----------------|-----------------|
B|----------------|-----------------|----------------|-----------------|
G|----------------|-----------------|----------------|-----------------|
D|----------------|-----------------|----------------|--------6~-7~-/--|
A|---5~--7~-8~-7~-|-----------------|---5~--7~-8~-7~-|--7~-9~----------|
E|-8--------------|-3--5~--7~-8~-7~-|-8--------------|-----------------|

REm
Casi sin darte cuenta
LAm
Se te puede enfermar el corazón
REm
Cuando uno menos lo espera    
  MI                  MI7
El veneno ya está en tus venas


PUENTE:

GUITARRA: distorcion  REm                                    LAm
e|-------|------|--|-10-------12----13---12-----10---12---|-/-5---7---8---7----5-----7---/----|
B|-------|------|--|---10------10----10----10-----10---10-|-/--5---5---5---5-----5-----5-/----|
G|--DO---|--LAm-|X2|-----10-----10----10-----10-----------|-----5---5---5---5-----------------|
D|-------|------|--|--------------------------------------|-----------------------------------|
A|-------|------|--|--------------------------------------|-----------------------------------|
E|-------|------|--|--------------------------------------|-----------------------------------|
  REm                                       MI7
e|-10-------12----13---12-----10---12---|-------------------------------------|
B|---10------10----10----10-----10---10-|/-15-15-15-15-15-15---15-15-15-------|
G|-----10-----10----10-----10-----------|/-13-13-13-13-13-13---13-13-13-------|
D|--------------------------------------|--12-12-12-12-12-12---12-12-12-------|
A|--------------------------------------|-------------------------------------|
E|--------------------------------------|-------------------------------------|

DO                         LAm
"lala lara  lala lara lara laaaa aa laa
DO                         LAm
lala lara  lala lara lara laaaa uoo ooohh"....
BAJO:  Do                    Lam                            REm  
G|------------------------|---------------------------|--|------------------------|------|------|
D|------------------------|---------------------------|X2|------------------------|--LAm-|-REm--|
A|-3-3--3-3-3--3-3--3-3-2-|---------------------------|--|-5-5-5-3-5-5--5-7-5-----|------|------|
E|------------------------|-5-5-5-5-5-3-5-5--3-5-5-5-5|--|--------------------8-5-|------|------|

G|---------------------|
D|---------------------|
A|-7-7-7-7-7-7--7-7-7--|
E|---------------------|

SOLO DE SAXO:
GUITARRA:                      y final con DO
e|--------|---------|----|-----1-------------|
B|--------|---------|----|----0--------------|
G|---Do---|---LAm---|-X4-|---0---------------|
D|--------|---------|----|--2----------------|
A|--------|---------|----|-3-----------------|
E|--------|---------|----|---------------------|

BAJO:  Do                    Lam                           
G|------------------------|---------------------------|--|--------------------|
D|------------------------|---------------------------|X4|--------------------|
A|-3-3--3-3-3--3-3--3-3-2-|---------------------------|--|--3-2-0--------3--|
E|------------------------|-5-5-5-5-5-3-5-5--3-5-5-5-5|--|--------3-1-0-------|


fin.

Fuente original ATAME [www.atame.org]
Colaborador original: guille [elguille665@hotmail]

Fuente: tusacordes.com