a b c d e f g h i j k l m n o p q r s t u v w x y z 0-9

Veneno

La Renga

			
Vibrato>>>                 ~
   Estiradas>>                b
   Estirar y bajar>>>         ba
   Slide>>>                   s
   Sonidos armónicos>>>       <>
   Ligados ascendentes>       h
   Ligados descendentes>      p
   Se mantiene la estirada>   /


   Bueno fanaticos de la renga y del rock, mi nombre es Federico y aca les paso el solo de Veneno, 
   es un solo tremendo de un tema que pertenece a La Negra. Proximamente les voy a mandar el solo 
   de El final es en donde partí. Bueno espero que les sea facil tocarlo, la traduccion 
   esta perfectamente hecha. Cualquier duda me escriben.


E  --------------------------------------------------------------------------------------------
B  -------------------------------------------8-----------------------8-8s10--13H15P13---------
G  ---------------------------------7baP5-7-7/----7baP5---5-5-----7s9------------------14-14---
D  ------------2~~---5-5-5s7---7------------------------7-------7------------------------------
A  --3-----5-----------------------------------------------------------------------------------
E  --------------------------------------------------------------------------------------------

E  ----------------------------------------------------------------------12--------------------
B  ---------------10-13b~~-13ba-10-13b---12h13-15p13-12-13-12---------15----13-----------------
G  --12p9-12-12-----------------------------------------------14~~~14----------14-12-10-9------
D  --------------------------------------------------------------------------------------------
A  --------------------------------------------------------------------------------------------
E  --------------------------------------------------------------------------------------------

E  --------------------------------------------------------------------------------------------
B  --10------10p9------10p9------10p9------10p9------10p9------10p9------10p9------9-----------
G  -----12-9------12p9------12p9------12p9------12p9------12p9------12p9------12p9-------------
D  --------------------------------------------------------------------------------------------
A  --------------------------------------------------------------------------------------------
E  --------------------------------------------------------------------------------------------

E  --------8-----------------------------------------------------------------------------------
B  --------8------------------------------------------------Lleva varios sonidos armonicos-----
G  --7b-7b---7b-7baP5---5h7---5--------------5---7ba-5---5--7baP5-7baP5-7baP5-7baP5-7ba-5h7----
D  -------------------7------------7----5h7----7-------7---------------------------------------
A  --------------------------------------------------------------------------------------------
E  --------------------------------------------------------------------------------------------

E  --------------------------------------------------------------------------------------------
B  --------------------------------------------------------------------------------------------
G  --5---------5-5--------5--------------------------------------------------------------------
D  ----7---5h7-------5h7----5--5s>>>Es un S descendiente que se pierde sin llegar a ninguna nota
A  --------------------------------------------------------------------------------------------
E  --------------------------------------------------------------------------------------------

   Aguante el rock carajo, en especial La Renga y no la cumbia que no se merece llamarse musica!

Fuente original ATAME [www.atame.org]
Colaborador original: Federico [el_revbelde@hotmail.com]

Fuente: tusacordes.com