a b c d e f g h i j k l m n o p q r s t u v w x y z 0-9

Veneno

La Renga

C
E
A
D
			
 ESTE ESTA PERFECTAMENTE PERFECCIONADO

intro:
 	C	      E	    A 
E|---0--0-------------0---0--0-----0----------
B|---1----1---------1-0---1----1--1--1--------
G|---0------0-----0---0---2------2----2-------  
D|---2--------2-2-----2---2-------------------  
A|---3----------------2---0-------------------   
E|---0----------------0---0-------------------
 	C	      E  A 
E|---0--0-------------0---0-000000000----
B|---1----1---------1-0---1-111111111----
G|---0------0-----0---0---2-222222222---- 
D|---2--------2-2-----2---2-222222222---- 
A|---3----------------2---0-000000000----   
E|---0----------------0---0-000000000----

   C                                        A 
En un rincón de las sierras donde arden las estrellas, 
   C                                 A          
dejé mi herida abierta en un valle de penas. 
 D                        A 
Casi sin darte cuenta se te puede enfermar el corazón, 
D
cuando uno menos lo espera, 
   E
el veneno ya está en tus venas. 

   C                                A 
En un río de deshielo, al sol de una mañana
    C                              A 
trajeron en un cuerpo a un ángel de montaña,
   D                    A 
un par de ojos negros te pueden robar la ilusión
D                            E  
y no hay cura ni remedio que te haga ver mejor. 

   C                             A 
La luna y mi suerte, rompieron el encanto
    C                                          A 
perdí mi sueño en la noche que el ángel se hizo diablo. 
   C                     A         
Un par de ojos negros te pueden robar la ilusión
D                           E              
y no hay cura ni remedio que te haga ver mejor. 

   C                                        A 
En un rincón de las sierras donde arden las estrellas, 
   C                                  A 
dejé mi herida abierta en un valle de penas. 
D                        A               
Casi sin darte cuenta se te puede enfermar el corazón, 
D                           E
cuando uno menos lo espera, el veneno ya está en tus venas.
C                            A 
la la lara la la lara la la laha La 

sigue con D unos 14 segundos y sigue con C y A 
y termina con C 

Fuente original ATAME [www.atame.org]
Colaborador original: ale del la fuente [ale182_666@hotmail.com]

Fuente: tusacordes.com