a b c d e f g h i j k l m n o p q r s t u v w x y z 0-9

Un Tiempo Fuera De Casa

La Renga

			
NOTA:
  : es estirar la cuerda hasta que lo indique el numero q esta dentro
      del paréntesis.
... :hacer una pausa
/   :arrastrar la cuerda seria hacer slide
s   : slide
p   : pull off especie de ligado pero de forma descendente, 
      del puente hacia el clavijero
h   : hamer on  ligado ascendente, del clavijero hacia el puente)
^  : levantar la cuerda

************************************************************************

      D             A             G
lo dejaste y ahora estas arrepentido
D             A                 G
caminate y nunca encontraste el mio
D                A             G
no supiste enfrentar la realidad
D             A                 G
y los dias te hicieron comprender

que no era asi nena, no...

1)----------------------------------------------------------------|
2)--------^^^-----11-------------------------1011p8-------------|
3)-10^...-^^^--10------...?10-1011p8...-------------10p8--------|
4)----------------------------------------------------------------|
5)----------------------------------------------------------------|
6)----------------------------------------------------------------|

1)----------------------------------------------------------------|
2)-----------------12^...-12p10h12p10---14^14p12h14p12------------|
3)-9/11...-11-11-11-----------------------------------------------|
4)----------------------------------------------------------------|
5)----------------------------------------------------------------|
6)----------------------------------------------------------------|

1)----------------------------------|
2)-14^p12-14^----12^p10...?12p10/5--|
3)----------------------------------|
4)----------------------------------|
5)----------------------------------|
6)----------------------------------|

regresaste y ahora estas arrepentida
y volves pero no dejas de lado
las cosas que aprendiste alla afuera
y quisas hoy te vuelvas a marchar

1)-----------------------------------------------------------------------
2)------------------13^-13----13-----------------------------------11(10)
3)9/11v--?-15-14^...14^----14----14^p12h14p12h14p12-10v------------10 9
4)---------------------------------------------- -------10/12-10-12------
5)-----------------------------------------------------------------------
6)-----------------------------------------------------------------------

1)-------------------------------------------
2)-----12--------------14^p12h14p12h14p12h14-
3)-13^...-p11h13p11--------------------------
4)-------------------------------------------
5)-------------------------------------------
6)-------------------------------------------

SOLO DE SAXO :


regresaste y ahora estas arrepentida
y volves pero no dejas de lado
las cosas que aprendiste alla afuera
y quisas hoy te vuelvas a marchar

SOLO DE SAXO

temina en D

*************************************************************************
este tema es una masa, costo pero salio,... cualquier duda o corrección 
hacerla a federnr_la25@hotmail.com
bueno,...aguante La ReNgA!!!!!!!!!!!!

Fuente original ATAME [www.atame.org]
Colaborador original: Federico [federnr_la25@hotmail.com]

Fuente: tusacordes.com