a b c d e f g h i j k l m n o p q r s t u v w x y z 0-9

Triste Cancion De Amor

La Renga

			
arpegio
	Lam			Sol
---0---------0--------0-------3----------3---------3--
-----1---------1------1---------3----------3-------3--
----------------------2----------------------------0--
--------2--------2----2-------------0----------0---0--
----------------------0----------------------------2--
---------------------------------------------------3--



             Lam               Sol
Ella existió solo en un sueño
         Lam                     Sol 
y el es el poema que el poeta nunca escribió.
             Lam 
Y en la eternidad los dos
                 Sol  
unieron sus almas para darle vida
  Fa            Mi              Lam 
a esta triste canción de amor.

-----------------------------
-1----1----1---1---1---1---1-
-2----2----2---0---2---0---2-	x2 riff
-----------------------------
-----------------------------
-----------------------------

El es como el mar y ella como la luna
y en las noches de luna llena hacen el amor
Y en la eternidad los dos
unieron sus almas para darle vida
a esta triste canción de amor,

-----------------------------
-1----1----1---1---1---1---1-
-2----2----2---0---2---0---2-	
-----------------------------
-----------------------------
-----------------------------
  Fa            Mi               Lam
a esta triste canción de amor.

-----------------------------
-1----1----1---1---1---1---1-
-2----2----2---0---2---0---2-	
-----------------------------
-----------------------------
-----------------------------

Solo:La Solx2 - Fa Mi  Lax2

El es como un dios y ella como una virgen
y los dioses les enseñaron a pecar
y en la eternidad los dos
unieron sus almas para darle vida
a esta triste canción de amor.
-----------------------------
-1----1----1---1---1---1---1-
-2----2----2---0---2---0---2-	
-----------------------------
-----------------------------
-----------------------------
  Fa            Mi               Lam
a esta triste canción de amor.

-----------------------------
-1----1----1---1---1---1---1-
-2----2----2---0---2---0---2-	
-----------------------------
-----------------------------
-----------------------------

solo

--------------------------------------------------
-12s14--14s17------------12-13-15-15s17--15-15-15-
-12s14--14s17------12-14--------------------------
--------------------------------------------------
--------------------------------------------------
--------------------------------------------------

---------------------------------------------------------------
--15h17p15-13h15p13-12-----------------------------------------
---------------------------------------------------------------
-----------------------14-----------12-12/--12b----------------
------------------------------12-15-------15----15-14h15p14-12-
---------------------------------------------------------------

--------------------------15h17-15---15-15h17/---15------------20--17-17-17-17-15-------
------12-13-13-13-13-12-----------17----------------17---15-17--------------------17-15-
---14-----------------------------------------------------------------------------------
----------------------------------------------------------------------------------------
----------------------------------------------------------------------------------------
----------------------------------------------------------------------------------------

----------------------------
--12-12-13-12--10--------10-
----------------------12----
----------------------------
----------------------------
----------------------------

Ella existió....

final

--12p10-12-----------------
------------12p10-12b------
---------------------------
---------------------------
---------------------------
---------------------------



dedicado para el fer y martin

aguante la renga!

Fuente original ATAME [www.atame.org]
Colaborador original: el laucha! [heroe_del_whisky873@hotmail.com]

Fuente: tusacordes.com