a b c d e f g h i j k l m n o p q r s t u v w x y z 0-9

Tripa Y Corazon

La Renga

			
el intro de esta cancion se puede hacer de dos maneras diferentes, y cualquiera de las dos suena bien.

E---------------       
B---------------
G--------7--9---
D---2-2--6--8---      
A---2-2---------
E---0-0---------

o

e---------------      Mi5x2 - Re5 - Mi5
B---------------
G---------7-9---
D---2-2---7-9---       
A---2-2---5-7---
E---0-0---------

recomiendo la primera, pero es a eleccion.

la cancion esta en 5tas, no en notas mayores, ya que chizzo usa muy pocas notas mayares, aca la cancion.

   
Sol5                La5
   Condenado a la sed de ser
Sol5                       La5
   Siempre que hay vida habrá esperanza
Sol5                    La5
   se suda sangre por florecer
Sol5                     La5
   y en marchitarse con poco alcanza

Riff de intro

Até con tripa mi corazón
sin más que eso salí a la cancha
para lo malo habrá un mejor
toda esta en mí la confianza        mismas notas

Riff de intro

Do5                                      Sol5
  Es tu canción la que quiero oír en mi voz
Do5                                      Mi5
  cuando me digas que todo va a estar mejor
Do5                                   Sol5
  que aún ves el camino, que no te derriban
           La5
brindo por la ilusión.

Riff de intro

La sed que condenó a mi ser
la que me dió la esperanza
me dió sangre para beber
y también para derramarla   mismas notas de la primera estrofa

solo:


6|---------------------------------------------------
5|---------------------------------------------------
4|---------------------------------------------------
3||14brepite alrededor d 16 veces|14b14b14b14b14b--
2||12------------------------------|15-15-15-15-15---
1|---------------------------------------------------

6|-------------------------------------------
5|------------------------------------------
4|-----------------14b-14b-13b--14b-14b-13b--
3|14br14---14br14--------------------------
2|------12b----------------------------------


6|--------------------------------------------
5|--------------------------------------------
4|--------------------------------------------
3|-------|14b-14b--14b|repite varias veces--
2|16b-16-|------15----|-----------------------
1|--------------------------------------------

6|--------------------------------------------------
5|--------------------------------------------------
4|--------------------------------------------------
3|-5s7-9--5s7-9--5s7-9---9-7-9--9---5s7-7-9-7-5-3-2-
2|-----------------------------7--------------------
1|--------------------------------------------------

6|--------------------------------------------------
5|--------------------------------------------------
4|--------------------------------------------------
3|-------------------------|9 |varias veces-------
2|5s7-8-9b--9b9b9b9b9b9b---|10|---------------------
1|--------10----------------------------------------

lo saque de otro lado, pero esta bien asi


Do5                                      Sol5
  Es tu canción la que quiero oír en mi voz
Do5                                      Mi5
  cuando me digas que todo va a estar mejor
Do5                                   Sol5
  que aún ves el camino, que no te derriban
           La5
brindo por la ilusión.

Riff hasta el final.

Fuente: tusacordes.com