a b c d e f g h i j k l m n o p q r s t u v w x y z 0-9

Tripa Y Corazon

La Renga

			
Intro cuando empieza la bteria

1|-----7-9-----7-9-----7-9-----7-9-7-7-7
2|--------------------------------------
3|-7-7-----7-7-----7-7-----7-7----------
4|--------------------------------------

Verso condenado a la sed...

1|-----------------------
2|-----------------------
3|-----------------------  x4(* esa nota usala de
4|-3-3-3--5-5-5-0*-------       enganche para volver
                                al sol).

Riff de intro x2

Verso x 4

Estribillo Es tu cancion la...

1|-------------------------------9-9
2|------------5-5-------------------
3|--3-3-----------5-3-3-3-5-7-7-7---
4|-------5-3-3----------------------

1|-------------------------
2|-------------------7-7---
3|--3-3-3------------------
4|-------5-3-3-5-5-5-------

Solo
Riff de inro como base y luego estribillo tambien.

Estrillo

Final riff de intro x 1

Fuente original ATAME [www.atame.org]
Colaborador original: Bruno Sabetta [bruno_acdc@hotmail.com]

Fuente: tusacordes.com