a b c d e f g h i j k l m n o p q r s t u v w x y z 0-9

Somos Los Mismos De Siempre

La Renga

			
Intro:
e-----------------------------------------|
b-----------------------------------------|
g-7-7---7----7---------------------------7| x 2
d-7-7-9-7--9-7-9-7-5-5--7-5-5-x-5-5-7-5--7|
a-----9----9---9-7-5-5--7-5-5-x-5-5-7-5---|
e-----------------------------------------|

RE            LA
  A dónde vas, qué buscás
DO      SOL      RE
en el frío de la noche.
RE          LA
En tu andar, veo mi andar
   DO        SOL       RE
y somos los mismos de siempre.
RE          LA
La soledad, como un disfraz
DOL        SOL     RE
te vende entre la gente.
RE              LA
Y hay un cartel, te invita a entrar,
DO       SOL            RE
adentro suena un rock caliente.

LA
  No sé muy bien lo que te pueda pasar,
      SOL
pero ya estás en ambiente, ya estás bien caliente.
LA
   La banda suena, te veo brillar,
SOLSilencio
no soy tu solución pero sí un mejor disfraz.

SOLO:

e-/10~-13-10--13p12p10-13b--17b-17-15-14-15p14-12-
b-------------------------------------------------
g-------------------------------------------------
d-------------------------------------------------
a-------------------------------------------------
e-------------------------------------------------

e-12/14-------------------------------------------
b--------15--/10-10-13p12p10----------------------
g----------------------------13p12p10-12b-10h12p10
d-------------------------------------------------
a-------------------------------------------------
e-------------------------------------------------

e---------------/15-15|
b---------------------|
g----10-----13--------|
d-12----12b-----------|
a---------------------|
e---------------------|

A dónde vas, qué buscás
en el frío de la noche
No hay recetas ni etiquetas
que te hagan sentir diferente
Buscas refugio, querés sentir
querés un golpe de suerte
Y en tu andar veo mi andar
y somos los mismos de siempre

No se muy bien lo que te pueda pasar
pero, ya estás en ambiente, ya estás bien caliente
La banda suena, te veo brillar
no soy tu solución pero sí un mejor disfraz

Solo 2

Intro - RE LA DO SOL RE x2 - LA SOL LA SOL - Intro

No se muy bien lo que te pueda pasar
pero, ya estás en ambiente, ya estás bien caliente
La banda suena, te veo brillar
no soy tu solución pero sí un mejor disfraz

Intro    y termina asi..RE LA DO SOL RE..
                        RE LA DO SOL RE**..

Re**
e-2-2-0-2-|
b-3-3-0-3-|
g-2-2-0-2-|
d---------|
a---------|
e---------|  fin.

Fuente original ATAME [www.atame.org]
Colaborador original: Raúl Cubitto [slash_bw@hotmail.com]

Fuente: tusacordes.com