a b c d e f g h i j k l m n o p q r s t u v w x y z 0-9

Somos Los Mismos De Siempre

La Renga

			
ESTA ES LA VERSIÓN ORIGINAL DE LOS MISMOS DE SIEMPRE,
NO ES IGUAL A LA DE BAILANDO EN UNA PATA, AHÍ LES VA:

INTRO 0:00/0:22

sin distorsión
|--------------------------------------------------------------------------|
|--------------------------------------------------------------------------|
|--------------------------------------------------------------------------|
|---7-7---7--------7-9----------9-7------7-7----7-----7-9----------9-7-----|
|-------9--------9-----9-7---7------9----7-7--9-----9-----9-7---7------9---|
|--------------------------------------------------------------------------|

con distorsión
|--------------------------------------------------------------------------------|
|--------------------------------------------------------------------------------|
|---7-7---7------7--9------------9--7-----------------7--9-------------9--7------|
|---7-7-9-7---9--7--9--9--7---7--9--7--9-----7-7---9--7--9--9--7----7--9--7--9---|
|-------9-----9--------9--7---7--------9-----7-7---9--------9--7----7--------9---|
|--------------------------------------------------------------------------------|
________________________________________________________________________________________

SOLO

|---10--13-10-10---11>14-16-14---14-14--12-11-10-9--12^-----------|
|-----------------------------------------------------------------|
|-----------------------------------------------------------------|
|---------------------------------------------------------7-7-9---|
|---------------------------------------------------------7-7-9---|
|-----------------------------------------------------------------|
________________________________________________________________________________________

Riff 1       Riff 2
|---------|  |-------------|
|---------|  |-------------|
|---------|  |-------------|
|---7-7---|  |---7-7-9-7---|
|---7-7---|  |---7-7-9-7---|
|---------|  |-------------|
________________________________________________________________________________________

Estructura:

D          Riff 1 
A donde vas
A         
que buscas
C	   G        D  Riff 2
en el filo de la noche.
 G      D   Riff1 
En tu andar,
 G       D  
veo mi andar
C            G          D     Riff 2
y somos los mismos de siempre.
G    D     Riff1 
La soledad,
 D       C            G           D     Riff 2
como un disfraz te vende entre la gente.
Y hay un cartel, te invita a entrar,adentro suena un rock caliente.


A
No se lo que te pueda pasar
      G
pero ya estás en ambiente, y estás bien caliente
A
la banda suena te veo brillar
G 
no soy tu solución pero si un mejor disfraz.

SOLO

Adónde vas, qué buscás, en el filo de la noche.
No hay recetas, ni etiquetas
que te hagan sentir diferente.
Buscás refugio, querés sentir,
querés un golpe de suerte.
Y en tu andar, veo mi andar
y somos los mismos de siempre.

Fuente original ATAME [www.atame.org]
Colaborador original: matias perez [matiaselrebelde@hotmail.com]

Fuente: tusacordes.com