a b c d e f g h i j k l m n o p q r s t u v w x y z 0-9

Ser Yo

La Renga

			
Hola a todos!!! SOY HERNAN DE MENDOZA...aca esta SER YO bien sacado,
esta fácil asi que¡¡¡practíquenlo!!!, les va a salir...
escuchen el tema para saber el ritmo de los Riffs y para guiarse.
La letra no esta porque esta en otro tab.


INTRO:
       E                D                C
e-------------------------2-----------------0---------
B----------0-----------------3--------------1---------
G--------0---0---------2--------------------0---------
D-------------------0-------------------2-------------
A-----7----------0----------------0--3----------------
E-----------------------------------------------------
   B   Bb  A   G   E           D
e--------------------------------------------2--------
B--------------------------------------------3--------
G--4---3----------------------0--2--2h3--2---2--------
D--4---3-----------2-------2-----------------0--------
A--2---1---0-------2----2----------------------------
E--------------3---0----------------------------------

        C        B   Bb  A   G   E           D
e-----------0---------------------------------------------2-
B-----------1---------------------------------------------3-
G-----------0----4---3---2------------------0--2--2h3--2--2-
D--------2-------4---3---2---5---2------2-----------------0-
A----3-----------2---1---0---5---2---2---------------------
E----------------------------3---0--------------------------


        C        B   Bb  A   G   E           D
e-----------0---------------------------------------------2-|-F--0--
B-----------1---------------------------------------------3-|-I--1--
G-----------0----4---3---2------------------0--2--2h3--2--2-|-N--0--
D--------2-------4---3---2---5---2------2-----------------0-|-A--2--
A----3-----------2---1---0---5---2---2---------------------|-L--3--
E----------------------------3---0--------------------------|----x--

AGUANTE LA RENGA Y ALAS NEGRAS!!!!!
DEDICADO A LOS PIBES DEL BARRIO AGUA Y ENERGIA Y 7 DE JULIO DE MENDOZA Y A MI MAMA
POR EL AGUANTE!!!
CUALQUIER DUDA,SUGERENCIA, AMENAZA O INSULTO MANDAMELO A : hernan_73_05@hotmail.com

Fuente original ATAME [www.atame.org]
Colaborador original: hernan [hernan_73_05]

Fuente: tusacordes.com