a b c d e f g h i j k l m n o p q r s t u v w x y z 0-9

Ser Yo

La Renga

			
Vibrato>>>                 ~
   Estiradas>>                b
   Estirar y bajar>>>         ba
   Slide>>>                   s
   Sonidos armónicos>>>       <>
   Ligados ascendentes>       h
   Ligados descendentes>      p
   Se mantiene la estirada>   /

          Toca con la estirada mantenida las 3 notas seguidas de la estirada
E  --------------------------------------------------------------------------
B  --------------------------------------------------------------------------
G  --14b/-14-14-14---14b/-14-14-14---14b/-14-14-14---14b/-14-14-14-14p12-----
D  ----------------------------------------------------------------------14--
A  --------------------------------------------------------------------------
E  --------------------------------------------------------------------------

E  --------------------------------------------------------------------------
B  --------------------------------------------------------------------------
G  --------12~~~-------12~~~--12-11h12p11--11h12p11h12p11--------------------
D  --12s14-------12s14------------------------------------14-----------------
A  --------------------------------------------------------------------------
E  --------------------------------------------------------------------------

E  --------------------------------------------------------------------------
B  --------------------------------------------------------------------------
G  --------------------------------------------------------------------------
D  -----12-12s14s12s14-14s16-16s14-12---------12s14-14s16-16s17-17s19-19s21--
A  --14-------------------------------15-14----------------------------------
E  --------------------------------------------------------------------------
                               1/2  *
E  -------------------------------------17bap15-17b-17bap15-17---------------
B  ------------------15-15-17-17ba-17b---------------------------------------
G  ------------14s16---------------------------------------------------------
D  --------19----------------------------------------------------------------
A  --19s21-------------------------------------------------------------------
E  --------------------------------------------------------------------------
                                 **
E  --------15----15ba-15b--------17b--17p15----------------------------------
B  --15s17----17-----------15s17------------17---15b-12-14bap12-14b----------
G  --------------------------------------------------------------------------
D  --------------------------------------------------------------------------
A  --------------------------------------------------------------------------
E  --------------------------------------------------------------------------

E  --------------------------------------------------------------------------
B  --------------------------------------------------------------------------
G  --14b-14bap12-------11h12p11h12p11h12p11----------------------------------
D  --------------14-------------------------14-------------------------------
A  --------------------------------------------------------------------------
E  --------------------------------------------------------------------------


   *   Estira varias veces y va aumentando los tonos de la estirada.
   **  Estira también varias y veces y aumentan los tonos de la estirada.
   
   Bueno, demás esta decir que lo vayan sacando escuchandolo. A mi entender no 
   es un solo tan sencillo. Lo saque lo mejor que pude, creo que esta bastante 
   bien. Cualquier duda me escriben.

Fuente original ATAME [www.atame.org]
Colaborador original: Federico [el_revbelde@hotmail.com]

Fuente: tusacordes.com