a b c d e f g h i j k l m n o p q r s t u v w x y z 0-9

Ser Yo

La Renga

			
INTRO:   
   E              D                    C
e--------0-----------------2---------------------------
B-----------0-----------3-----3--------------0---------
G--------------0-----2-----------2--------------1------
D-----------------0-----------------0-----2--------0---
A-----2--------------------------------3---------------
E--0---------------------------------------------------

   A#   D    A    D    G    E
e--------------------------------------------
B--------------------------------------------
G--------------------------------------------
D-------0---------0--------------------------
A--1---------0-------------------------------
E----------------------3----0----------------

E                  D                 C
e---------------------------2-----------------------
B------------------------3-----3-----------0--------
G---0--0--2--3--2-----2-----------2-----------1-----
D------------------0--------------------2--------0--
A------------------------------------3--------------
E---------------------------------------------------

   A#   D    A    D    G    E
e--------------------------------------------
B--------------------------------------------
G--------------------------------------------
D-------0---------0--------------------------
A--1---------0-------------------------------
E----------------------3----0----------------
                
e-------------------
B-------------------
G---0--0--2--3--2---   Final con A7
D-------------------
A-------------------
E-------------------

S5 A#5 A5    

E5
Reducido a un triste reciduo 
                            S5 A#5 A5
que no recicla este basural
E5
Asi te quieren, de eso se trata     
 					S5 A#5 A5
perdiendo sucio y sin chistar.

No hay más tiempo que el que te queda 
ésa es toda tu oportunidad 
no quieras que otros 
roben tu vida 
tu propio siendo, quiere ser ya. 

E            G
 De ser uno mas
     A          A#   A    G  
resistiria a la idea de serlo
E               G       A   A#   A    G 
 Yo quiero ser yo, ser yo
 
Como acá me ves 
enredado en estas redes 
Queriendo ser yo, ser yo. 
 
INTERMEDIO: 
 
Habrá guadaña, cuando del rebaño 
tu cabeza se quiera asomar 
Así se juega siempre con trampa 
y el que se juega, jugado está. 

No hay más tiempo que el que te queda 
ésa es toda tu oportunidad 
No quieras que otros sangren tu herida 
tu propio siendo, quiere ser ya. 

ESTRIBLILLO

Cualquier duda escribime al mail
Alejandro Cano

Fuente original ATAME [www.atame.org]
Colaborador original: Alejandro Cano [ale2727@hotmail.com]

Fuente: tusacordes.com