a b c d e f g h i j k l m n o p q r s t u v w x y z 0-9

Reite

La Renga

			
|----------|---------------|----------|----------------|
|----------|---------------|----------|----------------|
|----------|---------------|----------|----------------|
|----------|---------------|----------|----------------| X4
|----------|----------3-5v-|----------|-----------7-5v-|
|-0-3-4-5--|-0-3-4-5-5-----|-0-3-4-5--|-0-3-4-5-5------|

Reíte  no pares de reir     es tu oportunidad
|------------------------------------------------------|
|----5b---------------------------------------------10-|
|----5b--------/5h7p5----------------------/8h9p8-9-9--|
|--------------------7p5h7-----------------------------|
|------------------------------------------------------|
|------------------------------------------------------|
y aunque pienses que te reis de todo vos reite igual
reite, nunca pares de reir, que tu risa es fatal
paraesos que castran a la vida del instinto natural

C            D
Y que en tu risa viva el arte
|---------------------------------------------|
|-------------------------------5----------5--|
|--------------------------2----5-----2----5--|
|--------------------------2----------2-------|
|--------------------------0----------0-------|
|---------------------------------------------|
C       D
de que rian los demas
|------------------------|
|-------------------10b--|
|--------------------9b--|
|------------------------|
|------------------------|
|------------------------|
C        D
estar feliz no es pecado
|--------------------------------------------|
|--------------------------------------------|
|--------------------------------------------|
|--------------------------------------------|
|--------------------------------------------|
|----------------------5--7--5--3/5--7--5--3-|
C          D
ni un trastorno mental
|--------------------------------------------|
|--------------------10b---------------------|
|---------------------9b---------------------|
|--------------------------------------------|
|--------------------------------------------|
|--------------------------------------------|

Intro x2

Reite, reite hasta morir, aunque te quieran borrar
toda la cosquilla de tu alma, que busca su libertad
reite, con vos me quiero reir, es nuestra oportunidad
y aunque venga el aguafiesta nos vamos a reir igual, JA

Y no se obtiene con riqueza
ni con poder ni aun siendo capaz
ellos no tienen risa y se divierten
amargando nuestro carnaval

Solo

Intro x2

Y que en tu risa viva el arte
de que rian los demas
estar feliz no es pecado
ni un trastorno mental

Intro x2

Puente
|---------|----------|---------|-----------|
|---------|----------|---------|-----------|
|---------|----------|---------|-----------|
|---------|-------7/-|---------|-----------|
|-x-x-x-x-|-x-x-x-7/-|-x-x-x-x-|-x-x-x-3-5-|
|-x-x-x-x-|-x-x-x-5/-|-x-x-x-x-|-x-x-x-----|  

|---------|----------|---------|-----------|
|---------|----------|---------|-----------|
|---------|----------|---------|-----------|
|---------|-------7/-|---------|-----------|
|-x-x-x-x-|-x-x-x-7/-|-x-x-x-x-|-x-x-x-7-5-|
|-x-x-x-x-|-x-x-x-5/-|-x-x-x-x-|-x-x-x-----|  

Intro x2

La risa es un legado natural 
y no tienen porque quitarsela a NADIE. 
                                  Chizzo
Aguante la Renga y Cuerda Floja

http://cuerdafloja.webcindario.com

Fuente original ATAME [www.atame.org]
Colaborador original: Mariano Kanesic [cuerda_floja_rnr@hotmail.com]

Fuente: tusacordes.com