a b c d e f g h i j k l m n o p q r s t u v w x y z 0-9

Pis Y Caca

La Renga

			
Verso Mermelada...

G--------------------------------------------------------------------
D--------------------------------------------------------------------
A-777-0-5-7-5-777-----------------------------4-5-6-7-777777---------
E-----------------777-0-5-7-5-7777-55555555-5----------------7777777-x3

Estribillo Me dice...

G---------------------------------
D---------------------------------
A----------777-0-5-7-7777777------
E--5-0-3-5------------------------x2

G---------------------------------
D---------------------------------
A---------------------------------
E--5-0-3-5-55-5-0-3-5-555-0-3-5---

Solo de saxo

G--------------------------
D--------------------------
A--------------------------
E--555555-00000--7-7-------

G--------------------------------------------------------------------
D--------------------------------------------------------------------
A-777-0-5-7-5-777-----------------------------4-5-6-7-777777---------
E-----------------777-0-5-7-5-7777-55555555-5----------------7777777-x2

Estribillo Me dice...

G---------------------------------
D---------------------------------
A----------777-0-5-7-7777777------
E--5-0-3-5------------------------x2

G---------------------------------
D---------------------------------
A---------------------------------
E--5-0-3-5-55-5-0-3-5-555-0-3-5---

G--------------------------
D--------------------------
A--------------------------
E--555555-00000--7-7-------

Verso Mmermelada...

Bajo solo

G------------------------------------------------------------------------
D----66-77-9----66-77-9--------------------------------------------------
A-77---------77------------66-77-9----66-77-9--------------77777---------
E-----------------------77---------77---------555-0-3-5-55-------7777777-

G---------------------------------------
D---------------------------------------
A-777-0-5-7-5-777-----------------------
E-----------------777-0-5-7-5-7777-5-5-

Final

G----------------------------
D--7-5-----------------------
A------7-5--0-5-6-7----------
E-------------------7--0-----

G------------------------------
D------------------------------
A-7-777-7-7-7-77777----7h0---
E--0---0-0-0-0-----------------

Fuente original ATAME [www.atame.org]
Colaborador original: Alejandro Wasil [alewasil@hotmail.com]

Fuente: tusacordes.com