a b c d e f g h i j k l m n o p q r s t u v w x y z 0-9

Panic Show

La Renga

			
Bueno este es el primer punteo de la cancion y la primer cancion que agrego :-)

e|------7-10-7-10-7-10-7-10-7-10||-----------------------------|
B|------------------------------||------15~~~~~~-----15h12-----|
G|------------------------------||-----------------------------|
D|------------------------------||-----------------------------|
A|------------------------------||-----------------------------|
E|------------------------------||-----------------------------|

e|------15~~~~~--15---15--15h12-|
B|------------------------------|
G|------------------------------|Aquí va una parte
D|------------------------------|que no la puedo
A|------------------------------|descifrar y sigue
E|------------------------------|esto:


e|------------------------------||-----------------------------|
B|------------------------------||-----------------------------|
G|---9-9-9-7---7--7--7h6--------||-----------------------------|
D|-----------9------------9-8---||-----7--5--7--5--------------|
A|------------------------------||-----------------5--7~-------|
E|------------------------------||-----------------------------|


e|--------------------------------------------------|
B|--------------8h7---------------------------------|
G|--------7-9-------9-7---7h6-----------------------|
D|----/9-----------------------9-8---7-5-7-5--------|
A|-------------------------------------------5-7----|
E|--------------------------------------------------|

Fuente: tusacordes.com