a b c d e f g h i j k l m n o p q r s t u v w x y z 0-9

Panic Show

La Renga

			
HOLA A TODOS...
esta es la versión de Insoportablemente vivo....
ahí les va!!!!

1° SOLO  1:49/2:17

|-7h10p7h10p7h10p7h10p7h10p7h10p7h10--11^--------12^--12-10------|------------------------11^-9------------------------------|
|------------------------------------------10-12-------------10^-|--9--------10-9---12-10---------12-9~~---------------------|
|----------------------------------------------------------------|----10---------------------------------11--9-11------10-9--|
|----------------------------------------------------------------|--------11---------------------------------------9-11------|
|----------------------------------------------------------------|-----------------------------------------------------------|
|----------------------------------------------------------------|-----------------------------------------------------------|

|----------------------------------|---------------------------------|
|----------------------------------|---------------------------------|
|--9-------------------------------|--9------------------------------|
|----9-5--5-4-3-2--1-------1-------|---9-5--5-4-3-2--1-------1-------|
|--------------------5-4-2---4-2---|-------------------5-4-2---4-2---|
|----------------------------------|---------------------------------|
___________________________________________________________________________________________________________________________

2° SOLO 2:55/3:08

con wha wha  sin wha wha
|------------|--------------10^--------10~~--10-12--------------9-------------10---------------------------------------|
|--0000000---|--10^--10-12-------------------------10-----------8--9~~--10^-8-----11^----------------------------------|
|--9999999---|-------------------12-10-----------------12-10-9--9----------------------11-10-8~~-----------------------|
|--9999999---|------------------------------------------------------------------------------------11-9---------9^-8-7--|
|--9999999---|-----------------------------------------------------------------------------------------11-10-9---------|
|------------|---------------------------------------------------------------------------------------------------------|
___________________________________________________________________________________________________________________________

Estructura:


         E5                    
¡Hola a todos! yo soy el león,
           A5                    E5
rugió la bestia en medio de la avenida
todos corrieron, sin entender,
       A5                   E5
Panic show a plena luz del día.

      C5              G5
Por favor no huyan de mí
           D5          A5   G5  E5
yo soy el rey, de un mundo perdido
        C5            D5
soy el rey y te destrozaré,
             D5           A5  G5   E5
todos los cómplices son de mi apetito.

          E5
¡No te escapes! ven a mí,
    A5                     E5
desnúdate y enfrenta mis dientes
yo soy el rey, el león,
        A5               E5
ven a saber lo que se siente.

      C5              G5
Por favor no huyan de mí
           D5          A5   G5  E5
yo soy el rey, de un mundo perdido
        C5            D5
soy el rey y te destrozaré,
             D5           A5  G5   E5
todos los cómplices son de mi apetito.


1°SOLO

Hola a todos yo soy el león,
rugió la bestia en medio de la avenida 
todos corrieron, sin entender
panic show a plena luz del dia

Por favor no huyan de mí,
yo soy el rey de un mundo perdido
soy el rey y te destrozaré 
todos los cómplices son de mi apetitoooo.

2° SOLO

E5          A5           A5  G5  E5           
uoh,uoh,uoh,uoh,uoh,uoh,uoh,yeah,yeah
C5      G5       D5      A5   G5   E5
uoh,uoh,uoh,uoh,uoh,uoh uoh uoooooooh, yeah

Fuente original ATAME [www.atame.org]
Colaborador original: matias perez [matiaselrebelde@hotmail.com]

Fuente: tusacordes.com