a b c d e f g h i j k l m n o p q r s t u v w x y z 0-9

Panic Show

La Renga

			
Vibrato>>>                 ~
   Estiradas>>                b
   Estirar y bajar>>>         ba
   Slide>>>                   s
   Sonidos armónicos>>>       <>
   Ligados ascendentes>       h
   Ligados descendentes>      p
   Se mantiene la estirada>   /

                 TODOS ESTOS SON LIGADOS RAPIDOS                                *
E  --------------------------------------------------------------------------------------------- 
B  --15p12h15p12h15p12h15p12------15p12-------15p12-------15b-15ba-12-15ba-15b--S---------------
G  -------------------------14p12-------14p12-------14p12---------------------------------------
D  ---------------------------------------------------------------------------------------------
A  ---------------------------------------------------------------------------------------------
E  ---------------------------------------------------------------------------------------------

E  --12-15b-15baP12-15p12-----------------------------------------------------------------------
B  -----------------------15-12h15p12-----------15-------15-------------------------------------
G  -----------------------------------14-12--14/------14/---------7-9--9-9-9p7---7-7-7-7s6s4-3--
D  -----------------------------------------------------------7h9--------------9----------------
A  ---------------------------------------------------------------------------------------------
E  ---------------------------------------------------------------------------------------------

E  --------------------------------------------------------------------------------------------- 
B  ---------------------------------------------------------------------------------------------
G  --2---2-----1-----------9-9-9-9s12s9-9-9p7-7s6s4-3-2---2-----1-------------------------------
D  ----5---5-0-2---9-9-9-9------------------------------5---5-0-2-------------------------------
A  ------------2------------------------------------------------2-------------------------------
E  ------------0------------------------------------------------0-------------------------------



   Este solo se toca con wha-wha, si tienen pedal de expresión de wha-wha mucho mejor y si tienen
   wha-wha automatico no importa les va a sonar igual. Donde aparece * me refiero a que el Slide 
   en la segunda cuerda va desde el 12 al 17 y vuelve y se pierde sin llegar a ninguna cuerda.
   En donde estira en la cuerda 3 en el traste 14, mientras estiras pulsas el traste 15 de la 
   segunda cuerda sin soltar la estirada. Bueno espero que les sea facil tocarlo. Suerte!

Fuente original ATAME [www.atame.org]
Colaborador original: Federico [el_revbelde@hotmail.com]

Fuente: tusacordes.com