a b c d e f g h i j k l m n o p q r s t u v w x y z 0-9

Panic Show

La Renga

			
El bajo empieza en "hola a todos....."

G--------------------------------
D--------------------------------
A--------------------------------
E---0-0-0-0-0-0--5--5-5--6-5-3-0-

Estribillo

G---------------------------------------------
D---------------------------------------------
A-3--3-3-5-3----------------3-5--5-5-5--------
E------------5-3-3-3-3--3-5------------6-5-3-0

Siempre hace hace estos dos Riffs

Y termina asi

G--------------------------------
D--------------------------------
A--------------------------------
E-------5-------3---------0------

Fuente original ATAME [www.atame.org]
Colaborador original: Alejandro Wasil [alewasil@hotmail.com]

Fuente: tusacordes.com