a b c d e f g h i j k l m n o p q r s t u v w x y z 0-9

Panic Show

La Renga

			
voy a pasar toda la cancion porq otras tienen errores el solo
queda a lo ultimo.

la V es vibrato, la S es slide ,> es estirar.

-----------|
-----------|
-----------|
-----------|
---7-V-----|

    Voz

parte A: 4/4 |  MI5  | MI5  |  LA5  |  MI5  |  MI5  |  
             
             |  MI5  |  MI5 |  LA5  |  MI5  ||

Parte B:     |  Do5  |  Sol5  |  Re5  |  Mi5  |  Do5  |
       
             |  Sol5  |  Re5  |  Mi5  |


SOLO: 


|---7-S-10-7-S-10-7-S-10-7-S-10-7-S-10-|--------------|---------15->--15--12--15-S-12-|
|--------------------------------------|---15->->->->-|-15->-12-----------------------|
|--------------------------------------|--------------|-------------------------------|
|--------------------------------------|--------------|-------------------------------|
|--------------------------------------|--------------|-------------------------------|
|--------------------------------------|--------------|-------------------------------|

|--------------------------------------|--------------|-------------------------------|
|--------------------------------------|--------------|--------8-S-7------------------|
|-9--9--9-S-7---7----7-S-6-------------|--------------|---7-9--------9-7--------------|
|-------------9------------9--8--------|7-S-5-7-S-5---|9------------------------------|
|--------------------------------------|-----------5-7|-------------------------------|
|--------------------------------------|--------------|-------------------------------|

|--------------------------------------||   
|--------------------------------------||  
|--7-S-6-----7-S-5--7-S-5--------------||             _
|--------9-8--------------5--7-V-------||  Vuelve a: |A|
|--------------------------------------||             
|--------------------------------------|| 


FINAL: 

       |  Mi5  |  Mi5  |  La5 Sol5  |  Mi5  |  


Espero q les sirva porq no me banco q esten tan mal algunos solos.
suerte!!
cualquier cosita: jberta@fibertel.com.ar

Fuente original ATAME [www.atame.org]
Colaborador original: berta [jberta@fibertel.com.ar]

Fuente: tusacordes.com