a b c d e f g h i j k l m n o p q r s t u v w x y z 0-9

Paja Brava

La Renga

A
G
G#
E
D
			
 INTRO:
        A      G G#
  -------------------------------------------------
  --2--2--2---2--2--------2--2--2---2--2-----------
  --2--2--2---2--2--------2--2--2---2--2-----------
  --2--2--2---2--2--------2--2--2---2--2-----------
  -----------------0-2p3------------------0-2p3----
  -------------------------------------------------

con intro

En la tierra crece hierba buena
con la lluvia y el rayo del Sol 
pasadizo para el otro patio
punto rojo casita de Dios

E
El beleño y  la belladona
amanita y la mandrágora

D               re4
florecitas de mi tierra santa
A
viajecito para el mas allá,

Va la intro:

con intro
Masca coca que ya estamos alto
cáñamo bueno pa´ la tristeza
mescalito ya viene a buscarte
venadito, peyote y maíz.

E
El cornezuelo y la ayaguasca
el tornaloco y la salvia

D                       re4
el San Pedrito de los cuatro vientos
el virola y el floripondio

Punteo:

 ------------------------------------------------------------------------
 -/-17-15-13-10-10-10-/-17-15-13-10-10-10-/-17-15-13-10-10-10---2-2-2-2--
 ---------------------------------------------------------------2-2-2-2--
 ---------------------------------------------------------------2-2-2-2--
 ------------------------------------------------------------------------
 ------------------------------------------------------------------------

----------------------------------------------------------------------3--
 -/-17-15-13-10-10-10-/-17-15-13-10-10-10-/-17-15-13-10-10-10---2-2-2-2--
 ---------------------------------------------------------------2-2-2-2--
 ---------------------------------------------------------------2-2-2-2--
 ------------------------------------------------------------------------
 ------------------------------------------------------------------------

En la tierra crece hierba buena
con la lluvia y el rayo del Sol 
E
pesadizo para el otro patio
  Re5                          A 
punto rojo, casita de Dios.

final con intro

Este es un tema muy relajante para el fogon. Gracias de todo corazón,
Diego de lomas de zamora 

Fuente original ATAME [www.atame.org]
Colaborador original: diego [esquivandocharcos_66@hotmail.com]

Fuente: tusacordes.com