a b c d e f g h i j k l m n o p q r s t u v w x y z 0-9

Oscuro Diamante

La Renga

			
 
Intro:

E-------------------------------
B-------------------------------
G-------------------------------
D-4-5---------5-5--7-7---------- [X4] 
A-2-3--2-2-2--3-3--5?5----------
E------0-0-0--------------------

Punteo de la intro:

e----------|-----------------7---------|-----|------------------------12-12-14-10-10-12-10----------------------|
B----------|-------5-7-8-7-5---7-8-7-5-|-----|---------10-12-13-12-10----------------------13-12-13-12-10/12-12-|
G----------|-----4---------------------|-----|-------9----------------------------------------------------------|
D----------|---5-----------------------|-----|----10------------------------------------------------------------|
A-4-5--2-2-|-7-------------------------|-5-5-|-12---------------------------------------------------------------|
E-2-3--0-0-|---------------------------|-3-3-|------------------------------------------------------------------|


Riff:


E-------------------
B-------------------
G-------------------
D-5-5--7-7----------
A-3-3--5?5----------
E-------------------



  E5
Busquemos vida en algún lugar
  C5                          G5
al reparo del mundo sin brillo que hoy
  G5            D5 
en el cosmos de la mente
 Riff
se hizo estrella opaca

  E5
¿Hacia donde mas podemos ir?
  C5                          G5
tal vez el oscuro diamante esta en Mi 
  G5            D5 
tal vez seamos fugitivos
 Riff
de donde nadie escapa

Hace de nuevo el punteo de la intro:

e----------|-----------------7---------|-----|------------------------12-12-14-10-10-12-10----------------------|
B----------|-------5-7-8-7-5---7-8-7-5-|-----|---------10-12-13-12-10----------------------13-12-13-12-10/12-12-|
G----------|-----4---------------------|-----|-------9----------------------------------------------------------|
D----------|---5-----------------------|-----|----10------------------------------------------------------------|
A-4-5--2-2-|-7-------------------------|-5-5-|-12---------------------------------------------------------------|
E-2-3--0-0-|---------------------------|-3-3-|------------------------------------------------------------------|


  E5
Una huella invisible quisiera dejar
  C5                          G5
y que nadie sepa que estuvimos aca
  G5            D5 
quien dió a luz al primer sueño
 Riff
para ir tan lejos

  E5
Si pudieran mis ojos ver en el Sol 
  C5                          G5
para saber estas sombras descifrar
  G5            D5 
pero aunque ya se hizo tarde
 Riff
sigamos buscando

De nuevo el punteo:

e----------|-----------------7---------|-----|------------------------12-12-14-10-10-12-10----------------------|
B----------|-------5-7-8-7-5---7-8-7-5-|-----|---------10-12-13-12-10----------------------13-12-13-12-10/12-12-|
G----------|-----4---------------------|-----|-------9----------------------------------------------------------|
D----------|---5-----------------------|-----|----10------------------------------------------------------------|
A-4-5--2-2-|-7-------------------------|-5-5-|-12---------------------------------------------------------------|
E-2-3--0-0-|---------------------------|-3-3-|------------------------------------------------------------------|

y hace un solo de saxo


  E5
Perdido, sin decirlo, presiento el final
  C5                          G5
enterrando en la noche el pesado dolor
  G5            D5 
nos hacemos mas livianos
 Riff
nos quedamos sin sentido

  E5 
El mundo por fin se apago
  C5                          G5
dejando a oscuras la vieja ilusión
  G5            D5 
que aunque sea ya muy tarde
 Riff
seguimos buscando. 


La intro nuevamente:


E-------------------------------
B-------------------------------
G-------------------------------
D-4-5---------5-5--7-7---------- [X4] 
A-2-3--2-2-2--3-3--5?5----------
E------0-0-0--------------------

termina con el punteo [pero lo hace mas lento]: 

e----------|-----------------7---------
B----------|-------5-7-8-7-5---7-8-7---
G----------|-----4---------------------
A-4-5--2-2-|-7-------------------------
E-2-3--0-0-|---------------------------

y termina con un Mi menor.


Saludos.

y si tienen alguna duda consulten: nacho_2195@hotmail.com



 

Fuente: tusacordes.com