a b c d e f g h i j k l m n o p q r s t u v w x y z 0-9

Oscuro Diamante

La Renga

			

Intro:

G---------------- X4
D----------------
A-2-3-------2/5--
E-----0-0-0------

Riff:

G----------------------------------------
D----------------------------------------
A-----3-3--------------------------------
E-0-0------5/3-3-3-3--5-7-10-10-10-7-9-10

Verso:X2 "Busquemos vida..."

G-------------------------------------------------------------
D-----------5-------------------------------------------------
A-7-7-7-7-8---8-7-3-3-3-3-7-5---------------------------------
E----------------------------7-5-3-3-3-3--5-7-10-10-10-7-9-10-

Riff:X1 igual al verso

G-------------------------------------------------------------
D-----------5-------------------------------------------------
A-7-7-7-7-8---8-7-3-3-3-3-7-5---------------------------------
E----------------------------7-5-3-3-3-3--5-7-10-10-10-7-9-10-

Verso:X2 "Una huella invisible quisiera dejar..."

G-------------------------------------------------------------
D-----------5-------------------------------------------------
A-7-7-7-7-8---8-7-3-3-3-3-7-5---------------------------------
E----------------------------7-5-3-3-3-3--5-7-10-10-10-7-9-10-

Riff: donde corta la bata y el bajo

G------------------------
D------------------------
A-----3-3--2-5-------2/5-
E-0-0----------0-0-0-----

G---------------  X3
D---------------
A-2-5-------2/5-
E-----0-0-0-----

G-----------------------------------------------------------------
D-----------5-----------------------------------------------------
A-2-5-7-7-7-7-8---8-7-3-3-3-3-7-5---------------------------------
E----------------------------7-5-3-3-3-3--5-7-10-10-10-7-9-10-----

G-------------------------------------------------------------
D-----------5-------------------------------------------------
A-7-7-7-7-8---8-7-3-3-3-3-7-5---------------------------------
E----------------------------7-5-3-3-3-3--5-7-10-10-10-7-9-10-

Verso:X2 "Perdido sin decirlo presiento el final..."

G-------------------------------------------------------------
D-----------5-------------------------------------------------
A-7-7-7-7-8---8-7-3-3-3-3-7-5---------------------------------
E----------------------------7-5-3-3-3-3--5-7-10-10-10-7-9-10-

Final: "Seguimos buscando..."

G----------------------  X4
D----------------------
A-----2--3-5-5-5--2-5--
E-0-0------------------

G--------------
D--------------
A-2-5----------
E-----00--0/12-

Fuente: tusacordes.com