a b c d e f g h i j k l m n o p q r s t u v w x y z 0-9

Oscuro Diamante

La Renga

			
intro:

e|------------------|----------|-------0-2-3-2-0-7-------|
B|------------------|----------|-----0-------------7h8p7-|
G|------------------|----------|-------------------------|
D|----------5-5-7-7-|----------|---2---------------------|
A|-9-10-2-2-3-3-5-5-|-9-10-2-2-|-2-----------------------|
E|-7--8-0-0---------|-7--8-0-0-|-------------------------|
 |                  |
 -------X4---------/

e|-----------3-5-8-7-5-12-12-14-10-10-12-10---------------------|
B|------------------------------------------13-12-13-12-10/12-12|
G|-5-5-----5----------------------------------------------------|
D|-5-5---5------------------------------------------------------|
A|-3-3-3--------------------------------------------------------|
E|--------------------------------------------------------------|

ueno nose como sigue la cancion si alguien lo sabe agregue yo__eterno__17@hotmail.com i pasen como sigue el tema
chau

Fuente: tusacordes.com