a b c d e f g h i j k l m n o p q r s t u v w x y z 0-9

Oportunidad Oportuna

La Renga

			
Intro                 
 1-/-------------------/------------------------------
 2-/-------------------/------------------------------
 3-/-------------------/------------------------------
 4-/--5-7-9--5-7-------/---------------5-5-5-7-5------
 5-/--3-5-7--3-5-5-----/--5-5-5-7-5----3-3-3-3-3------
 6-/-------------3-----/--3-3-3-3-3-------------------
           x2                 x4          x4


 1-/--------------------------------------------------
 2-/--------------------------------------------------
 3-/--------------------------------------------------
 4-/--7--7-7-7-7-7----9--9-9-9-9-9----5--5-5-5-5-5----
 5-/--5--5-5-5-5-5----7--7-7-7-7-7----3--3-3-3-3-3----
 6-/--------------------------------------------------

  ----------------------------------------------------
  ----------------------------------------------------
  ----------------------------------------------------
  --7--7-7-7-7-7----5-7-9--5-7------------------------
  --5--5-5-5-5-5----3-5-7--3-5-5----------------------
  -----------------------------3----------------------



     

 Esta noche,es la noche
 no voy a perder mas el tiempo
 voy a salir de esta ciudad 
 no da para mas esta historia
 la vida solo tiene una vida
 y no voy a esperar 
 a esos que quieren sentir que mañana
 sabran donde ir

 
 Aburrida sensacion,
 de saber lo que viene
 vamos loco no me digas 
 que aun no pegaste el pasaje
 este tren se va y en el anden 
 solo quedan esos que quieren sentir 
 que mañana, 
 sabran donde ir


 Si te sentas a esperar 
 que vengan por los sentimientos
 vas a esperar tanto tiempo
 que ya la vida estara de vuelta
 este tren se va y en el anden
 solo quedan, esos que quieren sentir 
 que mañana 
 sabran donde ir




 Estructura:-Intro
            -parte que canta
            -Intro
            -parte que canta
            -parte que canta
            -solo
            -parte que canta

Fuente original ATAME [www.atame.org]
Colaborador original: Cabeson =============================== www.atame.org =============================== Este fichero es trabajo propio de su transcriptor y representa su interpretación personal de la canción. El usuario se compromete a utilizar este material únicamente para su aprendizaje y estudio personal. Para poder incluir este fichero en otro sitio Web, es necesario mencionar el origen del mismo [www.atame.org]

Fuente: tusacordes.com