a b c d e f g h i j k l m n o p q r s t u v w x y z 0-9

Noche Vudu

La Renga

			
 noche vudu:detonador de sueños



Riff 1: 
d|---------------------------|
A|---------------------------|
F|------------------6---4----|
C|------4---5---4-5-7-5---5--|
G|--5-5---5---5--------------| 
D|---------------------------|

Riff 2: 
d|------------------------------------------|
A|------------------------------------------|
F|------------------------------------------|
C|------------------------------------------|
G|-------2-2-2-3-3-3-5-------4-4-4-5-5-5-7--|
D|-3-3-3---------------5-5-5----------------|

Riff 3: 
d|-----------------| -------------------------|
A|-----------------| -------------------------|
F|-----------------| -------------------------|
C|--7-7-6---7-7-6--| x2 --5-5-3---5-5-3----------| x2
G|--------7-------7| --------5-------5--------|
D|-----------------| -------------------------|

INtro: Riff 1 x4 onda rock&roll rutero Riff1 x4 con mas velocidad

Riff 1 [tapando las cuerdas con la mano izquierda]
Había un lugar olvidado por Dios,
y a causa de eso pudrieron lograr
que el sacerdocio formara un club,
donde se toca y baila Rock & roll

Riff 2
Sin tantas leyes para la abstencion
de trago en trago bajaba el buffet,
enloquecia y sin contencion,
se perfilaba la noche Vudú.

solo: Riff 1 x4 Riff 2 x1 Riff 3 x2 

No había muerto sin vivir,
ni sacrificio falto en el altar,
absorto en el trance aquel tren
viaja ala rito me la perdicion

Hasta que un dia alguien vino a moldear
un vaticano con cabaret,
lleno de oro y con libros de amor,
se puso en claro quien tenía el poder.

Al hombre no le puede engañar
y hay que ajustarlo con la prohibicion,
debe saber quien lo va a perdonar,
por el pecado que cometio.

Ahora que el mundo se siente tan bien,
y puso sus penas en esta prision,
hay muchos fieles que quieren saber,
donde festejaban la noche Vudu.

 

Fuente: tusacordes.com