a b c d e f g h i j k l m n o p q r s t u v w x y z 0-9

Negra Es Mi Alma, Negro Mi Corazon

La Renga

			
La Renga - Negra es mi alma, negro mi corazón

Riff 1

|--------|--------------------------------|-----------------------------------|----------------------------|
|--------|--------------------------------|-----------------------------------|----------------------------|
|--------|-----------10-12^12p10-----10---|-----------10-12^12p10-----10------|----------5--7^7p5----------|
|---10---|---10--12---------------12------|---10--12---------------12---------|-------7------------7-------|
|---8----|---8----------------------------|---8--------------------------10---|---10------------------10---|
|--------|--------------------------------|------------------------------8----|---8-------------------8----|

|-----------------------|--------------------------|
|-----------------------|--------------------------|
|----------5-7^7p5------|-----------5--7^7---5-----|
|-------7-----------7---|--------7-----------------|
|---10------------------|---10---------------------|
|---8-------------------|---8----------------------|

Riff 2

|---------------------------------|
|---------------------------------|
|-----------10--12^12p10-----10---|
|---10--12----------------12------|
|---8-----------------------------|
|---------------------------------|

Intro: Riff 1

C
Triste o muy solo,
             F     F7
esclavo y fugitivo,
C 
mostraste tu puño 
                    F  F7
al cielo y la libertad.

Dm                 Am
Las cadenas no pudieron callarte,
              C           F
y en todo el mundo tu grito de escuchó.


Las heridas en tu alma no pudieron
apagar tu alegría y tu llanto

Bb            F
Te veo bailar al ritmo del tambor,
C7           F7
mi piel tan blanca se tiñe de vos.
Bb7
Tu ritmo alegre me contagió,
C7
y un triste blues la piel me erizó,
y ahora:

Riff 1
C7                             F7    Riff 2
Negra es mi alma, negro mi corazón...
C7                             F7    Riff 2
Negra es mi alma, negro mi corazón...
C7                             F7    Riff 2
Negra es mi alma, negro mi corazón...


No podrán detener tu fuerza,

el cielo es negro antes de llover
la fuerte lluvia que lava las pieles,
menos las almas, menos las almas
¡no ves!

Te veo bailar al ritmo del tambor,
mi piel tan blanca se tiñe de vos.
Tu ritmo alegre me contagió,
y un triste blues la piel me erizó,
y ahora:

Negra es mi alma, negro mi corazón...


Acordes

    F   C    F7  Dm  C   C7  Bb7 Bb  Am
|---1---8----1---5---0---0---4---1---5---|
|---1---8----4---6---1---1---3---3---5---|
|---2---9----2---7---0---3---1---1---7---|
|---3---10---1---7---2---2---3---3---7---|
|---3---10---3---5---3---3---1---1---5---|
|---1---8----1---5---0---0---1---1---5---|

Fuente original ATAME [www.atame.org]
Colaborador original: matias [laesquinademibarrio@hotmail.com]

Fuente: tusacordes.com