a b c d e f g h i j k l m n o p q r s t u v w x y z 0-9

Negra Es Mi Alma, Negro Mi Corazon

La Renga

			
Tema: Negra es mi alma, negro mi corazón
Album: Esquivando charcos / Bailando en una pata

Intro y riff principal:

1|------------------------|------------------------|
2|--6---6---6--8/10-6---|--6---6---6--8/10-6---|
3|--5-----7-------------7-|--5-----7-------------7-|
4|------------------------|------------------------|
5|------------------------|------------------------|
6|------------------------|------------------------|

1|------------------------|------------------------|
2|------------------------|------------------------|
3|--5---5---5--8/9-5----|--5---5---5--8/9-5----|
4|--5-----8------------8--|--5-----8------------8--|
5|------------------------|------------------------|
6|------------------------|------------------------|

1|------------------------|------------------------|
2|--6---6---6--810-6----|--6---6---6--8/10-6---|
3|--5-----7------------7--|--5-----7-------------7-|
4|------------------------|------------------------|
5|------------------------|------------------------|
6|------------------------|------------------------|

1|-----------------------------------------------|
2|-----------------------------------------------|
3|--5---------5--7/9--9--9-7--5------------|
4|--5-------7------------------------------------|
5|-----------------------------------------------|
6|-----------------------------------------------|

Referencias:
_b y h = ligados
_s = slide o arrastrado
_/  = estrirado hasta sonar a la nota entre  
_h  = armónico de la nota entre  
_# al lado de la nota = sostenido, sube 1 espacio, 1 semitono, es decir,
 si es un bocorde G#, en vez de ser en 6ta cuerda, 3er espacio, es en el 4
_b al lado de la nota = bemol, baja 1 espacio, 1 semitono, es decir,
 con el mismo ejemplo del #, en vez de 3 en 6ta es en 2

Tabeado por:
elpinda@hotmail.com

ViVa eL pUnK mIERdA! y aguante do´ minuto vieja!

Fuente original ATAME [www.atame.org]
Colaborador original: Adrian Horacio Espinosa [elpinda@hotmail.com]

Fuente: tusacordes.com