a b c d e f g h i j k l m n o p q r s t u v w x y z 0-9

Negra Es Mi Alma, Negro Mi Corazon

La Renga

			
INTRO
G|---------------|
D|---------------|
A|-8--8-----3--3-|
E|---------------|

G|-----------------------------------------------------------------| x2
D|-3-3-2-2-1-1-0-0-3-3-2-2-1-1-0-0-----2-2-3-3-5-5-----2-2-3-3-5-5-|
A|----------------------------------3-3------------3-3-------------|
E|-----------------------------------------------------------------|

G|--------|
D|--------|
A|--------|
E|-1x16-|



ESTROFA
G|----------------------------------------------------------------|
D|-----2-2-3-3-5-5----2-2-3-3-5-5-3-3-2-2-1-1-0-0-3-3-2-2-1-1-0-0-|
A|-3-3-------------3-3--------------------------------------------|
E|----------------------------------------------------------------|


...Las cadenas no pudieron callarte...
G|---7----------------------------------------------------------------|
D|--------------------------------------------------------------------|
A|-5---5-5-5-5-5-5-------------------3-3-3-3-3-3-3-3------------------|
E|------------------5-5-5-5-5-5-5-5-------------------1-1-1-1-1-1-1-1-|


...Te veo bailar al ritmo del tambor...
G|----------------------------------------------------------------|
D|----------------------------------------------------------------|
A|-1-1-1-1-1-1-1-1----------------3-3-3-3-3-3-3-3-----------------|
E|-----------------1-1-1-1-1-1-1-1----------------1-1-1-1-1-1-1-1-|


Estribillo Usa la misma base de la estrofa

Entrada al solo de saxo
G|-----------------|
D|-3-2-1-0---1-2-3-|
A|---------3-------|
E|-----------------|

Fuente original ATAME [www.atame.org]
Colaborador original: Federico Garcia [federico.garcia@fibertel.com.ar]

Fuente: tusacordes.com