a b c d e f g h i j k l m n o p q r s t u v w x y z 0-9

Motoralmaisangre

La Renga

			
INTRO

E|----3-------------------------------3---|
A|-0-2--3h-5-5-5-5-5-3h-5-5-5-5-5 0-2--3h5|
D|----------------------------------------|
G|----------------------------------------|

ESTROFAS
Si en sus manos ya no...
E|----3--------------------------|
A|-0-2--3h-5-5-5-5-5-3h-5-5-5-5-5|
D|-------------------------------|
G|-------------------------------|

ESTRIBILLO
Revisa todo....

E|-------5X8-----5X8-----5X8-3X8---------|
A|-3X8------3X8-----3X8------------3-2-3-5-|
D|-----------------------------------------------|
G|-----------------------------------------------|

PRE-SOLO

E|----3-----3---|
A|-0-0-0-2-0-0-0|Esto se hace
D|--------------|4 veces
G|--------------|

SOLO

E|-------5X8-----5X8-----5X8-3X8---------|
A|-3X8------3X8-----3X8------------3-2-3-5-|TRES
D|-----------------------------------------------|VECES
G|-----------------------------------------------|

FINAL

E|--5--5--|
A|--------|
D|--------|
G|--------|


Bueno esto es toda la cancion, espero q les guste porq
esta casi perfecta, alguna correccion o sugerencia me
pueden escribir a mi direccion de email
Ricoteroxmifelicidad@hotmail.com

Fuente original ATAME [www.atame.org]
Colaborador original: Juan Martín De Rosa [Ricoteroxmifelicidad@hotmail.com]

Fuente: tusacordes.com