a b c d e f g h i j k l m n o p q r s t u v w x y z 0-9

Moscas Verdes Para El Charlatan

La Renga

			
Slide out upawards: /
Bend estirar: ^
PreBend: ^=

E|-10^--8-------------8-----------8-----8------------------------------------------------
B|---------10--8--10-----10-10-10---10----10/--------------------------------------------
G|---------------------------------------------------------------------------------------
D|---------------------------------------------------------------------------------------
A|---------------------------------------------------------------------------------------
E|---------------------------------------------------------------------------------------

E|-------------------------------------------------10-12---------------------------------
B|13^-13^=-13--10------10-12-----10-12-13-12-10-12-------13---10----10/------------------
G|-----------------11---------11---------------------------------11----------------------
D|---------------------------------------------------------------------------------------
A|---------------------------------------------------------------------------------------
E|---------------------------------------------------------------------------------------

E|---------------------------------------------------------------------------------------
B|-12---------------------8---12-10------------------------------------------------------
G|----11--9-9-7-------7-9---9------------------------------------------------------------
D|----------------7-9--------------------------------------------------------------------
A|---------------------------------------------------------------------------------------
E|---------------------------------------------------------------------------------------

Fuente original ATAME [www.atame.org]
Colaborador original: ale de la fuente [ale182_666@hotmail.com]

Fuente: tusacordes.com