a b c d e f g h i j k l m n o p q r s t u v w x y z 0-9

Moscas Verdes Para El Charlatan

La Renga

			
Hola a todos!
Es mi primera transcripción en la página, le quería decir sin que se enoje al transcriptor anterior de moscas verdes para 
el charlatán que la intro no suena muybien acá se las mando bien completita

___________________________________________________________________________________________________________________________

INTRO: 0:00/0:34 sin distorsión

|---5----2-------------------------------|---5--2---------------------------------|
|------------4---3---3--0----------------|---------4--3---------3-0---------------|
|--------------------3--0--3--0---3--5---|---------------4--3---3-0--3-0---3--5---|
|--------------------------3--0----------|---------------------------3-0----------|
|----------------------------------------|----------------------------------------|
|----------------------------------------|----------------------------------------|
                INTRO 1                                     INTRO 2
___________________________________________________________________________________________________________________________

BASES DE ESTROFAS


          Riff 1              Riff 2                 Riff 3                   Riff 4                   Riff 5
|---7-4-----------------|  |---7--9---|  |----------------------------|  |--------------|  |------------------------------|
|--------6-5------------|  |---7--9---|  |----------------------------|  |--------------|  |------------------------------|
|-------------6-5-------|  |---7--9---|  |----------------------------|  |------4-------|  |------------------------------|
|------------------5---|  |----------|  |---7---8---7---8---9---11---|  |---------5~---|  |------5--4--3-----5--4--3-----|
|-----------------------|  |----------|  |---7---8---7---8---9---11---|  |---5----------|  |---5--------------------------|
|-----------------------|  |----------|  |---5---6---5---6---7---9----|  |---3----------|  |---3-----------3-----------3--|
  
   LA5
|-------|       Rasguido en LA5:  - + p - + p  
|-------|       + arriba
|-------|       - abajo
|---7---|       p palm mute
|---7---|
|---5---|
___________________________________________________________________________________________________________________________

Estructura:

 
INTRO: INTRO 1 x1  INTRO 2 x7


LA5                Riff 1                       
 Palomitas de maiz,
LA5                   Riff 1    
para esa boca abierta
LA5                    Riff 1
y un espejo retrovisor
LA5       
para que recuerde ah
      Riff 2
Queee        metió la pata.

INTRO 2 x2

LA5           Riff 4
moscas verdes 
LA5           Riff 1
para ese buche
LA5                     Riff 4
y un tesoro de su cagada 
para que recuerde
     Riff 2
queee      metió la pata.

INTRO 2 x2

Mi7                              Re7
Se le fue la lengua hablando de más
de sus desaciertos

INTRO 2 x4
LA5          Riff 4                          
Moscas verdes
LA5              Riff 1
para el charlatán
LA5                       Riff 4
y una patada en el trasero
LA5              
para que recuerde
   Riff 2
que      esa fue mi pata

INTRO 2 x2

Se le fue la lengua, quería volar
y no era cierto

  Riff 6
|----------------------|
|----------------------|
|----------------------|
|---7--8--9---7---9^---|
|---7--8--9---7--------|
|---5--6--7---5--------|

Riff 3

Re5
  Yo no sé para qué habló
si después se arrepintió
      LA5   Riff 5
de su letra
Re5
   a lo mejor temió que su suerte
   le diera palos a su inconciente
      Mi7
 no lo dejara dormir


SOLO

Riff 6 x3


Yo no sé para qué habló
si después se arrepintió
de su letra
a lo mejor temió que su suerte
le diera palos a si inconciente
Mi7                         Re
moscas verdes al charlatán
y que no hable nunca
La
 Más
____________________________________________________________________________________

El solo no lo saqué, estoy en eso.

El tema está facil, la primera parte del Riff 1 hace (e|---5-----2---|) 
y va una pequeña pausa y luego sigue con las otras notas

Estoy sacando la intro de el Sátiro de la mala leche y lo voy a poner dentro de poco

CHAU GRACIAS POR TODO DE TODO CORAZÓN




PIDAN CUALQUIER TABLATURA, VOY A HACER LO POSIBLE PARA SACARLA 
AGUANTE LA RENGA!!!!!

Fuente original ATAME [www.atame.org]
Colaborador original: matias perez [matiaselrebelde@hotmail.com]

Fuente: tusacordes.com