a b c d e f g h i j k l m n o p q r s t u v w x y z 0-9

Montaña Roja

La Renga

			
HOLA SOY DAMIAN ESTO ES MONTAÑA ROJA DE LA RENGA Y ESTA TAL CUAL...


INTRO:
|-----------------------------------------------------
|--5~--x-5-7-5-7--8-----------------------------------
|- 5~--x-5-7-5-7--8b-8h5-7--5h7-5--------------------
|----------------------------------5-7~--5---5-7-5---
|------------------------------------------7----------
|-----------------------------------------------------

-----------------------------|
--------------------------5~~|
--------------------------5~~|
-----------------------------|
---5~~-3-5-------3h0-3-------|
-----------5~~---------------|

 Am*              riff2    *haciendo cejilla en el quinto traste
 Es tal vez como ver
 Am                   riff3
 como la vez primera
 Am                   riff4
 y queriendo atravesar
 Am--------------------->
 cruces de mil barreras

2)
A5          C5      G5       A5
 La Montaña Roja sangrada por mí
A5           C5        G5  A5
 un cañón al río de mis venas
A5          C5      G5     A5
 la profundidad que se elevó
A5          C5     G5     D5
 llevará de mí lo que queda
 D5
 hacia las cumbres

 Riff 1
|---------------------------|
|---------------------------|
|-2--2--------2---2---------|
|-2--2--------2---2---------|x4
|-0--0------3-0---0-----3---|
|-------3-0---------3-0-----|

(Todo en base de Riff 1):

 Yo pronto me vi crecer
 hacia un cielo de estrellas
 y un trueno con tu voz
 roja pintó la arena

 2)
 Abrazado fuerte a mí donde voy
 hacia donde ya no hay fronteras
 la profundidad que se elevó
 llevara de mí lo que queda
 hacia las cumbres

 Solo en base de Riff 1

|-----------------------------------------------------------
|-5~~-----------------------------7~~-7---------------------
|-5~~----7b~~---7b-7~~---7p5-7b~~-7~~---7-------5-7-5-------
|-----------------------------------------7~~-5-------7----
|-----------------------------------------------------------
|-----------------------------------------------------------
                                   
                                               |------------|
-----------------------------------------------15-15-15-15--
----------------------------16-13-15b-15b-matiene bedding---
------------------------------------------------------------
--------------------------14--------------------------------
-3/5~~~~-3p5-5~~--------------------------------------------
-------------------5-5--------------------------------------

-----------------------------------16h17p16h17p16-10h11p10h11p10-
-15r-13----15b-15b--15r-13---13---------------------------------
--------14----------------14------------------------------------
-----------------------------------------------------------------
-----------------------------------------------------------------
-----------------------------------------------------------------

-7h8p7h8p7------------7h8p7h8p7--11p10h11p10--16h17p16h17p17---
------------7h8p7h8p7-----------------------------------------
--------------------------------------------------------------
----------------------------------------------------------------
----------------------------------------------------------------
----------------------------------------------------------------

----------7AH---------------------------------------------------|
---------------7br--------------------------8--8-8-8---10-10-10-|
-----5------------5br--7b--5---7-5---7-5~~---------------------|
-/5-5-----------------------7-----7---------------------------|
-/5------------------------------------------------------------|
----------------------------------------------------------------|

2)
(acá hace un silencio)
 La Montaña Roja sangrada por mí
 un cañón al río de mis venas
 la profundidad que se elevó
 llevará de mí lo que queda
 hacia las cumbres

 Riff 1 x2

a estas estiradas las hace 2 veces en las 2 primeras,fijense como van

|----------------------------------|
|-5----7----12---14--15---17-------|
|-7b---9b---14b--16b-17b--19b------|
|----------------------------------|
|----------------------------------|
|----------------------------------|



 2)
 Abrazado fuerte a mí donde voy
 hacia donde ya no hay fronteras
 la profundidad que se elevó
 llevara de mí lo que queda
 Hacia las cumbres

 final

repite  esto, y termina en "A5"

|----------------------------|
|----------------------------|
|----------------------------|
|----5---3----------5---3----|
|--7---5---5-3----5---5---5--|
|--5------------5------------|


 riffs:

riff2
|--------------------
|--7~~b/-------------
|--7~~b/-------------
|--------------------
|--------------------
|--------------------

riff3
|----------------------------|
|----------------------------|
|----------------------------|
|-x-7br-5-------5------------|
|---------7-5-7---5~~--------|
|----------------------5~~~~->este queda sonando hasta el riff4

riff4
   Am
|--5------5-7-----------|
|--5----5-----5---------|
|--5--5---------5-------|
|--7--------------------|
|--7--------------------|
|--5--------------------|

Fuente: tusacordes.com