a b c d e f g h i j k l m n o p q r s t u v w x y z 0-9

Miralos

La Renga

			
Solo de guitarra:

e|-------------------------------------------|
B|--------------------10------10-------------|
G|----------9--7v---9b--9b---9b--9brp7-9v----|
D|-----9--7----------------------------------|
A|--7----------------------------------------|
E|-------------------------------------------|

e|-------------------------------------------|
B|--------------------10-----10-10br-8-------|
G|----------9--7v---9b--9b---9b-------9v-----|
D|-----9--7----------------------------------|
A|--7----------------------------------------|
E|-------------------------------------------|

e|-------------------------------------------|
B|--------------------10------10-------------|
G|----------9--7v---9b--9b---9b--9brp7-------|
D|-----9--7----------------------------9p7-9-|
A|--7----------------------------------------|
E|-------------------------------------------|

e|-------------------------------------------|
B|--------------------10--8p7-7h8-7vvv-------|
G|----------9--7v---9b-----------------------|
D|-----9--7----------------------------------|
A|--7----------------------------------------|
E|-------------------------------------------|

e|-------------------------------------------|
B|-------------------------------------------|
G|-------------------2-4---------------------|
D|-------------2-4-5-----5-5/7-5-4--4h5v-----|
A|--2vvv-2-3-5-------------------------------|
E|-------------------------------------------|

e|---------------------------------------------------------------------------|
B|--------10-10/12v------------------7h8h10p8p7-10-10/12vv-------------------|
G|-----9h7---------------------7h9h11----------------------------------------|
D|--9h7------------------7h9h10----------------------------------------------|
A|--------------------9/7----------------------------------------------------|
E|---------------------------------------------------------------------------|

e|------12-14-15-14-12-10-10/12v----12-14^-12-12h14-12-10-8-7-8-10-8-7h8p7-/0|
B|--/12----------------------------------------------------------------------|
G|---------------------------------------------------------------------------|
D|---------------------------------------------------------------------------|
A|---------------------------------------------------------------------------|
E|---------------------------------------------------------------------------|

e|----3----------------------------------------------------------------------|
B|--5b-5b-5rp3-5v-----3-----3-3-3-3/5vvvvvv----------------------------------|
G|----------------2h4---2h4--------------------------------------------------|
D|---------------------------------------------------------------------------|
A|---------------------------------------------------------------------------|
E|---------------------------------------------------------------------------|

Fuente original ATAME [www.atame.org]
Colaborador original: andres diaz [andresikv@hotmail.com]

Fuente: tusacordes.com