a b c d e f g h i j k l m n o p q r s t u v w x y z 0-9

Me Hice Cancion

La Renga

			
Afinación: E A D G

Intro x2
G|------------------------|------------------------|
D|------------------------|------------------------|
E|-33-1-33-1-33-1-3-1-----|------------------1-----|
A|--------------------3-1-|-33-1-33-1-33-1-3---3-1-|

Verso x4                                             
G|------------------------|------------------------|
D|------------------------|------------------------|
E|-33-1-33-1-33-1-3-1-----|------------------1-----|
A|--------------------3-1-|-33-1-33-1-33-1-3---3-1-|

La Primera parte del verso puede variar asi:
G|------------------------|
D|-----------------1------|La segunda parte seria igual
A|33-1-33-1-33-1-3---3-1--|
E|------------------------|

Coro
G|-------------------------------------------------------------|
D|---------------------------------------3---------------------|
A|-------------------0-1-3-3-3-3-3-3-3-5---5-3-----------------|
E|-1-1-1-1-1-1-1-1-3---------------------------1-1-1-1-1-1-1-1-|

                     ...Y un silbido fueron mis venas... 
G|------------------|---------|---------------------|-----------|--------------------|
D|------------------|---------|---------------------|-----------|--------------------|
A|------------------|---------|---5-7-8-7-5-8-7-----|-----------|---5-7-8-7-5-8-7----|
E|-3-3-3-3---3-4-5~-|-5-5-5/8-|-7---------------8-5-|-5-5-5-5/8-|-7---------------8-5|
                 ^----^
                 Ligado

G|---------------------------------|
D|---------------------------------|
A|---------------------------------|
E|-5-5-5-5/8-8-8-8-1-1-1-1----3-3~-|

Verso x2

Puente/Final
G|----------------------------------------------------|
D|---------------------------------------------3------|
A|----------------------3-----55-3-55-3-55-3-5---5-3--|
E|-55-3-55-3-55-3-5-3-5---5-3-------------------------|

Dudas o comentarios a piri_22@hotmail.com

Fuente original ATAME [www.atame.org]
Colaborador original: Nicolas [piri_22@hotmail.com]

Fuente: tusacordes.com