a b c d e f g h i j k l m n o p q r s t u v w x y z 0-9

Luciendo Mi Saquito Blusero

La Renga

			
HOLA A TODOS!!!
Les voy a aclarar que esta versión de Luciendo mi saquito
blusero, es la versión de Bailando en una pata, o sea que está
en vivo y Chizzo hizo algunas modificaciones en la intro, son
las siguientes:

____________________________________________________________

intro 1 
|------------------------------------------------------|
|--------2-2-------2-------2-2------2------2--------2--|
|--------2-2-------2-------2-2------2------2--------2--|
|--2---4-----2--4-----2--4-----2--4---2--4---2--4---2--|
|--2---4-----2--4-----2--4-----2--4---2--4---2--4------|
|------------------------------------------------------|

intro 2
|------------------------------------------|
|-------2-2--------2--------2-2--------2---|
|--2--4------2--4-----2--4-------2--4--2---|
|--------------------------------------2---|
|------------------------------------------|
|------------------------------------------|
______________________________________________________________

INTRO:
        SAXO       TROMPETA       SAXO Y TROMPETA
intro 1       intro 1          INTRO 1

        uh,uh,uh,uh,uh,uh        uh, uh,uh....
intro 2                   intro 2


A                                          D
Vas a estar tranquila esperando con tu tonta ambision
A                               D
A que llége él tan millonario, en su super sport
A
Van a ir a cenar a esos lugares
E                     D             A 
donde conmigo nunca pu-pudiste conocer

Intro 2

Quizas mi fortuna de lata nunca te iba a alcanzar
para comprar todas esas pieles y esas perlas del mar
A                                D
Ahora volas tan alto que ignoras al barrio
A                          D
Miras para otro lado piojo resucitado


Estribillo:
A                             D 
Vas a manchar mi camisa de fina seda
A                               D
con el mejor champagne que el te va convidar
A
Mientras yo voy estar en algun agujero
E             D              A Intro
luciendo mi sa-saquito blusero


[SOLO ARMÓNICA]: INTRO 2

A                             D 
Vas a manchar mi camisa de fina seda
A                               D
con el mejor champagne que el te va convidar
A
Mientras yo voy estar en algun agujero
E             D              A 
luciendo mi sa-saquito blusero


Que chorreen las grasas nena!!!



CHAU LOCO, GRACIAS POR TODO, DE TODO CORAZÓN!!!!!!!!!!

Fuente original ATAME [www.atame.org]
Colaborador original: ]

Fuente: tusacordes.com