a b c d e f g h i j k l m n o p q r s t u v w x y z 0-9

Lo Fragil De La Locura

La Renga

			
INTRO:


   A5    E5 D#5 D5
|----------------------------|
|-------------------5H7P5----|
|-------------------5H7P5-7--|
|--7-7-7--9--8--7---------7--|
|--7-7-7--7--6--5------------|
|--5-5-5---------------------|


   A5    E5 D#5 D5
|----------------------------|
|-------------------5H7P5----|
|-------------------5H7P5-7--|
|--7-7-7--9--8--7---------7--|
|--7-7-7--7--6--5------------|
|--5-5-5---------------------|



   A5    E5 D#5 D5
|----------------------------|
|-------------------5H7P5----|
|-------------------5H7P5-7--|
|--7-7-7--9--8--7---------7--|
|--7-7-7--7--6--5------------|
|--5-5-5---------------------|



   A5    E5 D#5 D5
|---------------------|
|---------------------|
|---------------------|
|--7-7-7--9--8--7-----|
|--7-7-7--7--6--5-----|
|--5-5-5--------------|



 ESTA PARTE SE TOCA CON ARPEGIOS:


 Am                  F            
  LA SANGRE SE INQUIETABA EN MIS VENAS
    C               G
  Y AQUEL VERANO AL NORTE PARTÍ
 Am                 F
  PARA OLVIDARME DE MI RUTINA 
        C         G
  Y SENTIRME LIBERADO AL FIN.
 D                F 
  VER LA TIERRA BAÑADA DE SOL,
       C                 G
  RESPIRAR AIRE DE LAS ALTURAS.
 D           F 
  LLENAR EL CUENCO DE MIS OJOS
  C                 G    
  CON LO MAS FRÁGIL DE LA LOCURA



 Am             F              C
  PERO TAMBIEN LA REALIDAD MOSTRÒ
        G
  OTRO REFLEJO EN ELLA
 Am                        F               C
  CUANDO ME HABLO DE UN HERMANO AL QUE TAMBIÉN
      G
  ME LLEVÓ LA HUELLA.


 RIFF |---------------|
      |---------------|
      |---------------|
      |-----0--5--0---|
      |--3------------|
      |---------------|

  D5          E5 F5   C5          G5       RIFF
|-----------------------------------------------------|
|-----------------------------------------------------|
|-7--7-7-7-7--9--10---5--5-5-5-5----------------------|
|-7--7-7-7-7--9--10---5--5-5-5-5--5-5-5-5-------0-5-0-|
|-5--5-5-5-5--7--8----3--3-3-3-3--5-5-5-5-----3-------|
|---------------------------------3-3-3-3-------------|
YA QUE VAS A ESCRIBIR DIJO,CUENTA DE MI PUEBLO


  D5          E5 F5   C5          G5       RIFF
|--------------------------------------------------|
|--------------------------------------------------|
|-7--7-7-7-7--9--10---5--5-5-5-5-------------------|
|-7--7-7-7-7--9--10---5--5-5-5-5--5-5-5-5----0-5-0-|
|-5--5-5-5-5--7--8----3--3-3-3-3--5-5-5-5--3-------|
|---------------------------------3-3-3-3----------|
   POBREZA Y DOLOR,SOLO TRAJO EL PROGRESO

  D5          E5 F5   C5          G5       
|-------------------------------------------|
|-------------------------------------------|
|-7--7-7-7-7--9--10---5--5-5-5-5------------|
|-7--7-7-7-7--9--10---5--5-5-5-5--5-5-5-5---|
|-5--5-5-5-5--7--8----3--3-3-3-3--5-5-5-5---|
|---------------------------------3-3-3-3---|
LA CULTURA DE LA TRAICION Y LOS INDIOS EN LOS

  E5
|---------------------|
|---------------------|
|-9-9-9-9-9-9-9-9-9---|
|-9-9-9-9-9-9-9-9-9---|
|-7-7-7-7-7-7-7-7-7---|
|---------------------|
MUSEOS.


 A5             F5   
  ME INVITO A MASCAR DE SU HIERBA 
       C5          G5 
  Y A MORDER DE LA PURA VERDAD
 A5            F5                 C5
  ME PREGUNTO DE QUE SE OCUPABAN ALLA
    G5 
  EN LA CAPITAL



  D5          E5 F5   C5          G5       
|-------------------------------------------------0-------|
|-------------------------------------------------1H0-----|
|-7--7-7-7-7--9--10---5--5-5-5-5----------------------2H0-|
|-7--7-7-7-7--9--10---5--5-5-5-5--5-5-5-5-----------------|
|-5--5-5-5-5--7--8----3--3-3-3-3--5-5-5-5-----------------|
|---------------------------------3-3-3-3-----------------|
Y YO SOLO TUVE PALABRAS PARA DEFINIR LA INJUSTICIA



  D5          E5 F5   C5          G5       
|-------------------------------------------|
|-------------------------------------------|
|-7--7-7-7-7--9--10---5--5-5-5-5------------|
|-7--7-7-7-7--9--10---5--5-5-5-5--5-5-5-5---|
|-5--5-5-5-5--7--8----3--3-3-3-3--5-5-5-5---|
|---------------------------------3-3-3-3---|
Y QUE SOLO ASPIRABAN AL FRUTO DE LA PROPIA CODI-

  E5
|---------------------|
|---------------------|
|-9-9-9-9-9-9-9-9-9---|
|-9-9-9-9-9-9-9-9-9---|
|-7-7-7-7-7-7-7-7-7---|
|---------------------|
CIA 


 REPITE INTRO:

   A5    E5 D#5 D5
|----------------------------|
|-------------------5H7P5----|
|-------------------5H7P5-7--|
|--7-7-7--9--8--7---------7--|
|--7-7-7--7--6--5------------|
|--5-5-5---------------------|


   A5    E5 D#5 D5
|----------------------------|
|-------------------5H7P5----|
|-------------------5H7P5-7--|
|--7-7-7--9--8--7---------7--|
|--7-7-7--7--6--5------------|
|--5-5-5---------------------|



   A5    E5 D#5 D5
|----------------------------|
|-------------------5H7P5----|
|-------------------5H7P5-7--|
|--7-7-7--9--8--7---------7--|
|--7-7-7--7--6--5------------|
|--5-5-5---------------------|



   A5    E5 D#5 D5
|---------------------|
|---------------------|
|---------------------|
|--7-7-7--9--8--7-----|
|--7-7-7--7--6--5-----|
|--5-5-5--------------|



  E5
|---------------------|
|---------------------|
|-9-9-9-9-9-9-9-9-9---|
|-9-9-9-9-9-9-9-9-9---|
|-7-7-7-7-7-7-7-7-7---|
|---------------------|


SOLO:



|------------------------------8-------------------|
|----------------------------8--------------8-10~~-|
|-0-----------5---5--79~~-------97~~--7--------|
|-0--5-5-7~~----7----------------------------------|
|--------------------------------------------------|
|--------------------------------------------------|



|---------------------------|
|-10~~---8~~/---------------|
|------9-------9-9-9-8-7~~--|
|---------------------------|
|---------------------------|
|---------------------------|



|---------------------------------------|
|---------------------------------------|
|----4--5--7--5--4-----------5--4-------|
|-7-----------------7-7-5-5--------5----| X2
|----2--3--5--3--2-----------3--2-------|
|-5-----------------5-5-3-3--------3----|



|----------------------------------------------|
|----------------------------------------------|
|-7--9----12--14--12--12--12---9--9--9--8--7---|
|----------------------------------------------|
|-5--7----10--12--10--10--10---7--7--7--6--5---|
|----------------------------------------------|



|------------------------------------|
|------------------------------------|
|----4--5--7--5--4------------5--4---|
|-7------------------7-7-5-5---------|
|----2--3--5--3--2------------3--2---|
|-5------------------5-5-3-3---------|


 A5                     F5
  AL FIN VI LA TIERRA BAÑADA DE SOL
      C5                G5
  RESPIRE AIRE DE LAS ALTURAS
    A5                     F5
  Y LLENE EL CUENCO DE MIS OJOS
     C5               G5
  CON LO MAS FRAGIL DE LA LOCURA


  D5          E5 F5   C5          G5       RIFF
|-----------------------------------------------------|
|-----------------------------------------------------|
|-7--7-7-7-7--9--10---5--5-5-5-5----------------------|
|-7--7-7-7-7--9--10---5--5-5-5-5--5-5-5-5-------0-5-0-|
|-5--5-5-5-5--7--8----3--3-3-3-3--5-5-5-5-----3-------|
|---------------------------------3-3-3-3-------------|
YA QUE VAS A ESCRIBIR DIJO,CUENTA DE MI PUEBLO


  D5          E5 F5   C5          G5       RIFF
|--------------------------------------------------|
|--------------------------------------------------|
|-7--7-7-7-7--9--10---5--5-5-5-5-------------------|
|-7--7-7-7-7--9--10---5--5-5-5-5--5-5-5-5----0-5-0-|
|-5--5-5-5-5--7--8----3--3-3-3-3--5-5-5-5--3-------|
|---------------------------------3-3-3-3----------|
   POBREZA Y DOLOR,SOLO TRAJO EL PROGRESO

  D5          E5 F5   C5          G5       
|-------------------------------------------|
|-------------------------------------------|
|-7--7-7-7-7--9--10---5--5-5-5-5------------|
|-7--7-7-7-7--9--10---5--5-5-5-5--5-5-5-5---|
|-5--5-5-5-5--7--8----3--3-3-3-3--5-5-5-5---|
|---------------------------------3-3-3-3---|
LA CULTURA DE LA TRAICION Y LOS INDIOS EN LOS

  E5
|---------------------|
|---------------------|
|-9-9-9-9-9-9-9-9-9---|
|-9-9-9-9-9-9-9-9-9---|
|-7-7-7-7-7-7-7-7-7---|
|---------------------|
MUSEOS.

Fuente original ATAME [www.atame.org]
Colaborador original: Nookie [alpiojo2001@hotmail.com]

Fuente: tusacordes.com