a b c d e f g h i j k l m n o p q r s t u v w x y z 0-9

Lo Fragil De La Locura

La Renga

			
Hola a todos....
Este es el solo de lo fragil de la locura, creo que está bastante bien sacado,
espero que les sirva y si hay que hacerle alguna corrección , será bienvenida.


e------------------------------------------8------------------------------
B----------------------7--------------8-10---10--10p8---8-8-------8-------
G--5-------5---5-7/--9---9-9p7p5---9------------------9-----9-7s9---9-8-7-
D----5-7-7---7------------------------------------------------------------
A-------------------------------------------------------------------------
E-------------------------------------------------------------------------


---------------------------------------------------------------------------------
---------------------------------------------------------------------------------
---------------------------------------------------------------------------------
---------------------------------------------------------5-7-7p5-5-5-------------
-----2-3-5-3-2------3-2---------2-3-5-3-2------3-2---5-7-------------7-7-7-5-5-5-
--5------------5-3-----5-3-5-5------------5-3------5-----------------------------


---------------------------------------------------------------------------------
---------------------------------------------------------------------------------
---------------------------------------------------------------------------------
---------------------------------------------------------------------------------
--3-2----2-3-5-3-2------3-2------------------------------------------------------
------5------------5-3------5-3-5------------------------------------------------

p:pulloff    /:estirar    s: slide

Dense una vuelta por el solo de el cielo del desengaño, que me costo bastante
pero quedó muy bien.

Dudas o comnetarios: dosmasdostres@fullzero.com.ar

Fuente original ATAME [www.atame.org]
Colaborador original: Victor Amarillo [dosmasdostres@fullzero.com.ar]

Fuente: tusacordes.com