a b c d e f g h i j k l m n o p q r s t u v w x y z 0-9

Lo Fragil De La Locura

La Renga

			
Intro
1/------------------------x4
2/------------------------
3/-------7--6--5----------
4/-5--5-------------------


1er Verso:este se divide en dos partes, una comienza en LA y la otra en RE
1/-----------------------x2
2/-----------------------
3/-----------3---------
4/-5--1-------3----

1/-----------------------
2/-----------------------
3/-5-------3---------
4/------1-------3----

1/-----------------------
2/-----------------------
3/-5-------3---------
4/------1-------3x8--

Los parentesis significan que tenes que dejar sonar la cuerda durante todo el compás.
Para los que entienden un poco más, el simbolo que representan es una redonda.


2do Verso:
1/------------------------------------
2/------------------------------------
3/---------------3x8----------------
4/-5x8--1x8---------3x8---------

1/------------------------------------
2/------------------------------------
3/---------------3x8----------------
4/-5x8--1x8---------3x16--------

1/------------------------------------x2
2/------------------------------------
3/-5x8---------3x8----------------
4/--------1x8---------3x5---------

1/------------------------------------
2/------------------------------------
3/-5x8---------3x8----------------
4/--------1x8---------3x24--------

1/------------------------------------x2
2/------------------------------------
3/---------------3x8----------------
4/-5x8--1x8---------3x8---------

1/------------------------------------
2/------------------------------------
3/-5x8---------3x8----------------
4/--------1x8---------3x5---------

1/------------------------------------
2/------------------------------------
3/-5x8---------3x8----------------
4/--------1x8---------3x16--------

Puente
1/------------------------x3
2/------------------------
3/-------7--6--5----------
4/-5--5-------------------

1/------------------------
2/------------------------
3/-------7--6--5----------
4/-5--5-----------5x16--

Solo de guitarra y saxo
1/------------------------------------x6
2/------------------------------------
3/---------------3x8----------------
4/-5x8--1x8---------3x8---------

3er verso
1/------------------------------------
2/------------------------------------
3/---------------3x8----------------
4/-5x8--1x8---------3x8---------

1/------------------------------------
2/------------------------------------
3/---------------3x8----------------
4/-5x8--1x8---------3x16--------

1/------------------------------------x2
2/------------------------------------
3/-5x8---------3x8----------------
4/--------1x8---------3x5---------

1/------------------------------------
2/------------------------------------
3/-5x8---------3x8----------------
4/--------1x8---------3x24--------

Solo de armonica
1/------------------------------------x4
2/------------------------------------
3/---------------3x8----------------
4/-5x8--1x8---------3x8---------

Final
1/--------
2/--------
3/--------
4/-5--5---

La verdad es que esta canción no es muy difícil, pero es una de las tantas canciones para 
empezar a tocar. Ojala la disfruten, porque la letra es muy buena.
Cualquier duda, sugerencia, corrección o comentario, haganlo a gerbajo@hotmail.com

Fuente original ATAME [www.atame.org]
Colaborador original: gerpio [gerbajo@hotmail.com]

Fuente: tusacordes.com