a b c d e f g h i j k l m n o p q r s t u v w x y z 0-9

Lo Fragil De La Locura

La Renga

Am
F
C
G
Dm
A
			
 INTRO
|---------------------------------------------------------------------|  
|---------------------------------------------------------------------|   
|-----------------------------------------9--8--7----------7-7p5-0----| x 4
|-------------------7-7s1-----------------9--8--7---------------------|                 
|-------------------7-7s1-----------------7--6--5---------------------|
|-------------------5-5s1---------------------------------------------|

   Am                F
La sangre se inquietaba en mis venas 
   C              G 
y aquel verano al norte parti 
Am                  F
para olvidarme de mi rutina 
      C         G 
y sentirme liberado al fin. 
Dm             F
   Ver la tierra bañada de sol, 
       C              G 
respirar aire de las alturas, 
Dm            F
  llenar el cuenco de mis ojos, 
      C            G 
con lo mas fragil de la locura. 
A            F              C
Pero tambien la realidad mostro 
         G         A                     F                 C	
otro reflejo en ella cuando me hablo un hermano al que tambien,
      Sol            riff
me llevo la huella. 

Riff
D |------------5p3-0-----------|
A |----3-3--5------------------|
E |----------------------------|

 A                F
Ya que vas a escribir dijo 
       C           G   Riff
cuenta de mi pueblo, 
A             F      C          G 
pobreza y dolor solo trajo el progreso, 
A         F                   C     G 
la cultura de la traicion y los indios en los museos. 
A               F
Me invito a mascar de su hierba 
      C          G 
y a morder de la pura verdad 
A               F                 C     G 
me pregunto de que se ocupaban alla en la capital 
A         F              C               G   *
y yo solo tuve palabras para definir la injusticia 
A                F             C    G 
y que solo aspiraban al fruto de la propia codicia. 

Repite Intro

Solo : [ Ya esta en la Pag.] 
A - F - C - G 

A               F
Aqui vi la tierra bañada se sol,
      C             G   *
respire aire de las alturas 
 A              F      
y llene el cuenco de mis ojos, 
     C             G 
con lo mas fragil de la locura. 

A                F
Ya que vas a escribir dijo 
       C           G   Riff
cuenta de mi pueblo, 
A             F      C          G 
pobreza y dolor solo trajo el progreso, 
A         F                   C     G 
la cultura de la traicion y los indios en los museos. 

Solo Armonica
A - F - C - G 

Fuente original ATAME [www.atame.org]
Colaborador original: ]

Fuente: tusacordes.com