a b c d e f g h i j k l m n o p q r s t u v w x y z 0-9

Las Cosas Que Haces

La Renga

			
Solo:

e----------9---------------9-12-9------------------
b---------------------------------12-9-12-9--------
g--9-11-9-----12--12-9-12--------------------9--9e-
d--------------------------------------------------
a--------------------------------------------------
e--------------------------------------------------



-----------9---------------12-10--------12--------------------------
---------------------------------12-10-----12-10--9-e9--9-e9--9-e9--
--9--11-9----12--12-9--12-------------------------9-e9--9-e9--9-e9--
--------------------------------------------------------------------
--------------------------------------------------------------------
--------------------------------------------------------------------

Riff:
----------------------
----------------------
--6-4-----------------
------7-6-4-6-4-------
----------------7--4--
----------------------



E= estirar

UN saludo pa todos los que me conocen

Fuente original ATAME [www.atame.org]
Colaborador original: ZirSi [zirsi91@hotmail.com]

Fuente: tusacordes.com