a b c d e f g h i j k l m n o p q r s t u v w x y z 0-9

Las Cosas Que Hace

La Renga

			
intro:
G|--------|
D|--------|
A|--4-2---|
E|-----4-2|

ella vive en el....
despues de la guitarra..
G|----------------------|
D|----------------------|
A|----------------------|
E|-2-2-2-2-2-1-2-2-2-2-2|

G|----------------------------|
D|----------------------------|
A|----------------------------|
E|--0-0-0-0-0-0-0-0-0-0-0-0-0-|

se q me dira...
G|----------------------------|
D|----------------------------|
A|-------------7-7-7----------|
E|--0-0-0-0-0-----------------|

q estaba sola...
G|-------------------------------|
D|-------------------------------|
A|--------------------------7-7-7|
E|--0-0-0-0-0-0-0-0-0-0-0-0------|

y porq ella ...
G|---------------------------------|
D|---------------------------------|
A|------------2-2-2-2-2-1-2-2-2-2-2|
E|--0-0-0-0-0----------------------|


G|-------------------------------|
D|-------------------------------|
A|--------------------------7-7-7|
E|--0-0-0-0-0-0-0-0-0-0-0-0------|

ese pobre corazon...
G|-----------------------------------|
D|-----------------------------------|
A|--4-4-4-4-3-4-4-4-4----------------|
E|--------------------0-0-0-0-0-0-0-0|

siempre le fue..
G|-----------------------------------|
D|-----------------------------------|
A|--4-4-4-4-3-4-4-4-4----------------|
E|--------------------0-0-0-0-0-0-0-0|

que lo acepte como es...
G|-------------------------------------|
D|-------------------------------------|
A|--4-4-4-4-3-4-4-4-4------------------|
E|--------------------5-5-5-5-5-5-5-5-5|

aquel.. q sangra las penas del amor
G|-6-4---------------|
D|-----7-6-4-6-4-----|
A|---------------7-4-|
E|-------------------|

el...
G|-----------------------------------|
D|-----------------------------------|
A|--4-4-4-4-3-4-4-4-4----------------|
E|--------------------0-0-0-0-0-0-0-0|

el q te sabido desbocar
G|-6-4---------------|
D|-----7-6-4-6-4-----|
A|---------------7-4-|
E|-------------------|

a vos...
G|-----------------------------------|
D|-----------------------------------|
A|--4-4-4-4-3-4-4-4-4----------------|
E|--------------------0-0-0-0-0-0-0-0|

q lo llevas contra ..
G|-6-4---------------|
D|-----7-6-4-6-4-----|
A|---------------7-4-|
E|-------------------|

vos...
G|-----------------------------------|
D|-----------------------------------|
A|--4-4-4-4-3-4-4-4-4----------------|
E|--------------------0-0-0-0-0-0-0-0|

q cargas sus...
G|-6-4---------------|
D|-----7-6-4-6-4-----|
A|---------------7-4-|
E|-------------------|

G|------------------------------|
D|------------------------------|
A|--4-4-4-4-3-4-4-4-4--2--------|
E|------------------------4-2-0-|

acompañamiento en el punteo

G|-------------------------------------|
D|-------------------------------------|
A|-----------------------4-4-4-4-4-4-4-|
E|-0-0-0-0-0-0-0-0-0-0-0---------------|

final


G|---------------|
D|---------------|
A|---4-----------|
E|------4--2--0--|

Fuente original ATAME [www.atame.org]
Colaborador original: omar [omi2240@hotmail.com]

Fuente: tusacordes.com