a b c d e f g h i j k l m n o p q r s t u v w x y z 0-9

Las Cosas Que Hace

La Renga

			
PUNTEO

e|---------------------------------------------------
b|-----------14-12---12-12-12-9-12-14-9-12-9-12-7-7--
g|-9*---9-11-9---------------------------------------
D|---------------------------------------------------
A|---------------------------------------------------
E|---------------------------------------------------

e|----------------------------------12----------------
b|-----------14-12---12-12-12-9-12----14-12-9-7-9-7-5-
g|-9*---9-11-9------------------------------------------
D|----------------------------------------------------
A|----------------------------------------------------
E|----------------------------------------------------

* = desliza desde el traste 3

FINAL

e|-----------------------
b|-----------14-12-------
g|-9*---9-11-9-----------
D|---------------------2-
A|---------------------2-
E|---------------------0-

Fuente original ATAME [www.atame.org]
Colaborador original: Eze [chizzo2233]

Fuente: tusacordes.com