a b c d e f g h i j k l m n o p q r s t u v w x y z 0-9

Las Cosas Que Hace

La Renga

			
HOLA A TODOS!!!
ACÁ ESTÁ "LAS COSAS QUE HACE", UN TEMAZO RENGO, ESTÁ RE
FÁCIL:

TABLATURAS:

intro

|---------------------|
|---------------------|
|---------------------|
|---------------------|
|---4h0-4h0-4h0-4h0---|
|---2h0-2h0-2h0-2h0---|

solo

|---9--9-12-9-15-12--13-15-17------------------------|
|-----------------------------17-15-13---------------|
|--------------------------------------17-15-9~~~----|
|----------------------------------------------------|
|----------------------------------------------------|
|----------------------------------------------------|

|---9--9-12-9-15-12--13-15-17----------17-13-11-10-9~~~---|
|-----------------------------17-15-13--------------------|
|---------------------------------------------------------|
|---------------------------------------------------------|
|---------------------------------------------------------|
|---------------------------------------------------------|

no pongo la letra porq ya esta en la pag.

chau

Fuente original ATAME [www.atame.org]
Colaborador original: matias [matiaselrebelde@hotmail.com]

Fuente: tusacordes.com