a b c d e f g h i j k l m n o p q r s t u v w x y z 0-9

La Razon Que Te Demora

La Renga

			
La razon que te demora|
-----------------------

esta es mi version del solo, suertee!!

                                                                            armonico de pulgar
e|--------------------------------------------------------------------------5*------------------
b|--7----------10s12-10-----10---------------10-10p12-12-10-10p12p10----------------------------
g|--9/--9/--7-----------9p11---11p9----------------------------------11-------------------------
d|----------------------------------12----------------------------------------------------------
a|----------------------------------------------------------------------------------------------
E|----------------------------------------------------------------------------------------------

e|----------------------------------------------------------------------------------------------
b|-----s7-7h5---5---------10-------------------------------s7-----------------------------------
g|------------7---7--9/11----911---------------------------------------------------------------
d|----------------------------------7p9-7p9----2p0---2p0----------------------------------------
a|----------------------------------------------------------------------------------------------
E|----------------------------------------------------------------------------------------------



esta parte tienen que escucharla bien

e|---------------------------------------------------------9p10p9---12--10--9----------------------------
b|-----------------------------------------7h8h10--8h10s12-----------------------------------------------
g|-----------------------------7h9h11-7h9----------------------------------------------------------------
d|---------------7h9h11--9h11----------------------------------------------------------------------------
a|------s9h10h11-----------------------------------------------------------------------------------------
E|-------------------------------------------------------------------------------------------------------

e|--9p10-10s17--15--14-14--------------------------------------------------------------------------------
b|------------------------17-15-14-15-14p15p14----14-----------------------10-----------10---10--10------
g|---------------------------------------------16-----14-14/-/--11---9/11----911--7---9/11-9/11-9/11---
d|-------------------------------------------------------------------------------------------------------
a|-------------------------------------------------------------------------------------------------------
E|-------------------------------------------------------------------------------------------------------


/ estirar

 estirar y bajar

* armonico de pulgar

s slide

Fuente original ATAME [www.atame.org]
Colaborador original: Bruno Ricci [bruno578@hotmail.com]

Fuente: tusacordes.com