a b c d e f g h i j k l m n o p q r s t u v w x y z 0-9

La Razon Que Te Demora

La Renga

			
Solo de La Razon que te Demora
--------------------------------
PD: El solo es sacado de oido, puede tener errores. Este es un buen comienzo para ir perfeccionandola.


e|--------------------------------------------------------------------------------
b|--7----------10s12--10p12--10--12--12--10--12-10--7--7s9------------------------
g|--9/--9/--7-----------9p11------------------------------------------------------
d|--------------------------------------------------------------------------------
a|--------------------------------------------------------------------------------
E|--------------------------------------------------------------------------------

e|--------------------------------------------------------------------------------
b|-2s7--6--5--3--5--3--5h--5h--5h/--5--3--0---------------------------------------
g|------------------------------------------3p5p3--0-------3----------------------
d|-----------------------------------------------3p5p--0---3----------------------
a|------------------------------------------------------------5-------------------
E|--------------------------------------------------------------------------------

e|------------------------------7p8p7p8p7--7p10p7--10a12--10p12p10----------------
b|--------------------7--9--10-------------------------------------12a14----------
g|-----------7--8--9--------------------------------------------------------------
d|-7--8--10-----------------------------------------------------------------------
a|--------------------------------------------------------------------------------
E|--------------------------------------------------------------------------------

e|-9s17--15--14--14---------------------------------------------------------------
b|-----------------17--15--14--15--14--14s12--14--12/--12/--12/--7------10--------
g|------------------------------------------------------------------9/------9/--*-
d|--------------------------------------------------------------------------------
a|--------------------------------------------------------------------------------
E|--------------------------------------------------------------------------------


*---> Aqui realiza el misma estirada varias veces...escuchen el tema y se daran cuenta.

Cualquier sugerencia, arreglo, recomendacion, etc. Son bienvenidas a lea_gnr@hotmail.com
Tratemos de hacer que la musica nacional siga adelante, esta es mi primer tab en ATAME, y
estoy muy orgulloso de participar en este lugar tan valorado por mi. Todo dicho:)

Fuente original ATAME [www.atame.org]
Colaborador original: Leandro [lea_gnr@hotmail.com]

Fuente: tusacordes.com